Log in

One click and you are in

Login with Facebook Login with Google

Why sign up and log in

Guitar Tabs Explorer
Zaz tabs for Trop sensible

Guitar tabs with lyrics

Tuning: Standard

Difficulty: Novice

-------------------------------------------------------------------------------
                           Trop Sensible - Zaz
-------------------------------------------------------------------------------

[Picking Pattern]
    1  2  3  4  5  6  7  8  | 1  2  3  4  5  6  7  8
E-|----2--x-----------x-----|----0--x-----------x-----|
B-|----3--x-----------x-----|----1--x-----------x-----|
G-|----1--x-----------x-----|----2--x-----------x-----|
D-|-0-----x--0--------x--0--|-------x-----------x-----|
A-|-------x-----------x-----|-0-----x--0--------x--0--|
E-|-------x-----------x-----|-------x-----------x-----|


[Intro]
A chord diagramDmDm A chord diagramA minorAm A chord diagramDmDm A chord diagramA minorAm


[Chorus]
A chord diagramDmDm
  T'es Trop Sensible c'est vrai
  A chord diagramA minorAm
Et les autres voient pas qui tu es
A chord diagramDmDm
  Trop Sensible je sais
  A chord diagramA minorAm
Moi aussi ça a faillit me tuer


[Chorus]

[Verse]
Tu t'angoisses tu paniques t'es en crise
Quand tu te prends en plein cœur
Sans pouvoir l'exprimer tout de suite
C'est trop fort, ça f'rait peur
Solitaire dans ton monde tu chantes aux étoiles et
câlines la terre
Tu sens notre mère qui gronde
A chord diagramA augmentedA bout de force mais ne peut plus se taire
Tu sens la souffrance comme une bombe
Le tic-tac, en sourdine
Les puissants qui nous mènent à la tombe
Et se moquent de notre sort en prime

J'aimerais te dire que ce monde livide finira par se réveiller,
Mais j'ai bien peur que ça ne tienne qu'à un fil
Mais rassures toi, toi tu seras sauvé.


[Chorus] (x2)


[Verse]
Avec ta petite gueule d'ange
Tu nous fais voir des masques colorés
Tous ces gens qui te croient innocent
Mais toi tu voyages dans l'obscurité
Avec ta petite gueule d'ange
Tu laisses croire et ne semble qu'indiquer
Que dans ta tête y'a que des fleurs des sourires,
Des papillons et du sucre vanillé
Je ressens ta souffrance
Je la vois, je l'écoute

Almost there ...

Sign in to get your own page with links to favourite songs and more. You are just one click away...

Login with Facebook Login with Google