Log in

One click and you are in

Login with Facebook Login with Google

Why sign up and log in

Guitar Tabs Explorer
Yungblud bass tabs for Strawberry lipstick

Bass tabs

Tuning: Standard (E A D G)


Intro:

G|------------------------------------|
D|------------------------------------|
A|---------------------------1-1-1----|
E|-1-1-1-1-1-1-1-1-1-1-1-1-1------x2--|

Verse 1:

G|------------------------------------|
D|------------------------------------|
A|---------------------------1-1-1----|
E|-1-1-1-1-1-1-1-1-1-1-1-1-1----------|

G|------------------------------------|
D|------------------------------------|
A|---------------------------1-1-1----|
E|-1-1-1-1-1-1-1-1-1-1-1-1-1----------|

G|------------------------------------|
D|------------------------------------|
A|---------------------------1-1-1----|
E|-1-1-1-1-1-1-1-1-1-1-1-1-1----------|

G|------------------------------------|
D|------------------------------------|
A|-3-3-3-3-3-3-3-3-3-3-3-3-3-3-3------|
E|------------------------------------|

REPEAT: x2


Chorus:

G|------------------------------------|
D|-0-0--2-2--3-3-3-3------------------|
A|-----------------------x4-----------|
E|------------------------------------|


Break:

G|------------------------------------|
D|-3-3-3-3-3-3-3-3-3-3-3-3-3-3--------|
A|------------------------------------|
E|------------------------------------|


Verse 2:

G|------------------------------------|
D|------------------------------------|
A|---------------------------1-1-1----|
E|-1-1-1-1-1-1-1-1-1-1-1-1-1----------|

G|------------------------------------|
D|------------------------------------|
A|---------------------------1-1-1----|
E|-1-1-1-1-1-1-1-1-1-1-1-1-1----------|

G|------------------------------------|
D|------------------------------------|
A|---------------------------1-1-1----|
E|-1-1-1-1-1-1-1-1-1-1-1-1-1----------|

G|------------------------------------|
D|------------------------------------|
A|-3-3-3-3-3-3-3-3-3-3-3-3-3-3-3------|
E|------------------------------------|
 PLAY LAST BAR TWICE ON SECOND REPEAT

REPEAT: x2


Chorus:

G|------------------------------------|
D|-0-0--2-2--3-3-3-3------------------|
A|-----------------------x4-----------|
E|------------------------------------|


Break:

G|------------------------------------|
D|-3-3-3-3-3-3-3-3-3------------------|
A|------------------------------------|
E|------------------------------------|


Guitar Solo:

G|------------------------------------|
D|-0-0--2-2--3-3-3-3------------------|
A|-----------------------x4-----------|
E|------------------------------------|


Outro:

G|------------------------------------|
D|-0-0--2-2--3-3-3-3------------------|
A|-----------------------x6-----------|
E|------------------------------------|
ⓘ Bass guitar tab for 'Strawberry Lipstick' by Yungblud, a male pop-punk artist from Doncaster, South Yorkshire, England. Yungblud was born in 1998.

Almost there ...

Sign in to get your own page with links to favourite songs and more. You are just one click away...

Login with Facebook Login with Google