Log in

One click and you are in

Login with Facebook Login with Google

Why sign up and log in

Guitar Tabs Explorer
Yungblud bass tabs for Cotton candy

Bass tabs

Intro
G|---------------------------------------------------------------------------|
D|---7h9-7------7h9-9h11--------7h9-7--------7h9-7---------------------------|
A|---------------------------------------------------------------------------|
E|-5-------2--2----------10--10-------10--10---------------------------------|

Verse 1
G|---------------------------------------------------------------------------|
D|----7h9-7------7h9-9h11--------7h9-7--------7h9-7--------------------------|
A|---------------------------------------------------------------------------|
E|5-5-------2--2----------10--10-------10--10--------------------------------|

G|---------------------------------------------------------------------------|
D|----7h9-7------7h9-9h11--------7h9-7---------------------------------------|
A|---------------------------------------------------------------------------|
E|5-5-------2--2----------10--10-------10--10--12--13-12-10------------------|

G|---------------------------------------------------------------------------|
D|----7h9-7------7h9-9h11--------7h9-7--------7h9-7--------------------------|
A|---------------------------------------------------------------------------|
E|5-5 -------2--2----------10--10-------10--10--------------------------------|

G|---------------------------------------------------------------------------|
D|----7h9-7------7h9-9h11--------7h9-7---------------------------------------|
A|---------------------------------------------------------------------------|
E|5-5-------2--2----------10--10-------10.-----------------------------------|


Chorus
G|---------------------------------------------------------------------------|
D|----7h9-7------7h9-9h11--------7h9-7--------7h9-7--------------------------|
A|---------------------------------------------------------------------------|
E|5---------2--2----------10--10-------10--10--------------------------------|

G|---------------------------------------------------------------------------|
D|----7h9-7------7h9-9h11--------7h9-7---------------------------------------|
A|---------------------------------------------------------------------------|
E|5-5-------2--2----------10--10-------10--10--12--13-12-10------------------|

Verse 2

G|---------------------------------------------------------------------------|
D|-7h9-7------7h9-9h11--------7h9-7--------7h9-7-----------------------------|
A|---------------------------------------------------------------------------|
E|-------2--2----------10--10-------10--10-----------------------------------|

G|---------------------------------------------------------------------------|
D|----7h9-7------7h9-9h11--------7h9-7---------------------------------------|
A|---------------------------------------------------------------------------|
E|5-5-------2--2----------10--10-------10-10.--------------------------------|

G|---------------------------------------------------------------------------|
D|---7h9-7------7h9-9h11--------7h9-7-------7h9-7----------------------------|
A|---------------------------------------------------------------------------|
E|5--------2--2----------10--10-------10-10----------------------------------|

G|---------------------------------------------------------------------------|
D|----7h9-7------7h9-9h11--------7h9-7---------------------------------------|
A|---------------------------------------------------------------------------|
E|5-5-------2--2----------10--10-------10.-----------------------------------|


Chorus

G|---------------------------------------------------------------------------|
D|----7h9-7------7h9-9h11--------7h9-7--------7h9-7--------------------------|
A|---------------------------------------------------------------------------|
E|5---------2--2----------10--10-------10--10--------------------------------|

G|---------------------------------------------------------------------------|
D|----7h9-7------7h9-9h11--------7h9-7---------------------------------------|
A|---------------------------------------------------------------------------|
E|5-5-------2--2----------10--10-------10--10--12--13-12-10------------------|

G|---------------------------------------------------------------------------|
D|----7h9-7------7h9-9h11--------7h9-7--------7h9-7--------------------------|
A|---------------------------------------------------------------------------|
E|5-5-------2--2----------10--10-------10--10--------------------------------|

G|---------------------------------------------------------------------------|
D|----7h9-7------7h9-9h11--------7h9-7---------------------------------------|
A|---------------------------------------------------------------------------|
E|5-5-------2--2----------10--10-------10--10--12--13-12-10------------------|


Instrumental

G|---------------------------------------------------------------------------|
D|----7h9-7------7h9-9h11--------7h9-7--------7h9-7--------------------------|
A|---------------------------------------------------------------------------|
E|5---------2--2----------10--10-------10--10--------------------------------|

G|---------------------------------------------------------------------------|
D|----7h9-7------7h9-9h11--------7h9-7---------------------------------------|
A|---------------------------------------------------------------------------|
E|5-5-------2--2----------10--10-------10--10--12--13-12-10------------------|


Bridge

G|---------------------------------------------------------------------------|
D|---7h9-7------7h9-9h11--------7h9-7--------7h9-7---------------------------|
A|---------------------------------------------------------------------------|
E|-5-------2--2----------10--10-------10--10---------------------------------|

G|---------------------------------------------------------------------------|
D|----7h9-7------7h9-9h11--------7h9-7.--------------------------------------|
A|---------------------------------------------------------------------------|
E|5-5-------2--2----------10--10---------------------------------------------|


Chorus

G|---------------------------------------------------------------------------|
D|----7h9-7------7h9-9h11--------7h9-7--------7h9-7--------------------------|
A|---------------------------------------------------------------------------|
E|5---------2--2----------10--10-------10--10--------------------------------|

G|---------------------------------------------------------------------------|
D|----7h9-7------7h9-9h11--------7h9-7---------------------------------------|
A|---------------------------------------------------------------------------|
E|5-5-------2--2----------10--10-------10.-----------------------------------|


************************************

| .  Staccato
| h  Hammer-on


************************************

Almost there ...

Sign in to get your own page with links to favourite songs and more. You are just one click away...

Login with Facebook Login with Google