Log in

One click and you are in

Login with Facebook Login with Google

Why sign up and log in

Guitar Tabs Explorer
Yummy Fur tabs for Plastic cowboy

Guitar tabs with lyrics

Here's some TAB from Glasgow's hottest band "The Yummy Fur"

The basic guitar sound is very hard to achieve, I play my clapped out
les paul, and that gives the sort of right sound. The amp set up is
fairly easy, Loads of treble, little bass and full presense and contour.
Best of all play it loud!!!!!!!

Plastic Cowboy: Written by The Yummy Fur.

Guitar 1 plays:

-------------------------------
---5---------------------------
---5-----------8---------------
---5--5--6--7-----7--6---------
-------------------------------
-------------------------------
Guitar 2 plays:

---8--8-------11--8--8----------
---8--8--9--10----10-8----------
--------------------------------
--------------------------------
--------------------------------
--------------------------------
Not sure about the lead breaks, but they sound just like the basic riff
pumped up.

The album version says YEP YEP YEP
but the single says RIGHT RIGHT RIGHT.

Well I hope you have fun playing it...

            NICK "ZERO" THURGOOD

Almost there ...

Sign in to get your own page with links to favourite songs and more. You are just one click away...

Login with Facebook Login with Google