Log in

One click and you are in

Login with Facebook Login with Google

Why sign up and log in

Guitar Tabs Explorer
Yumi Kawamura bass tabs for When the moons reaching out stars

When The Moons Reaching Out Stars bass tab by Yumi Kawamura

Yumi Kawamura bass tabs for When the moons reaching out stars

Bass tabs

Intro:
G|-----------------------------5-5----------------------------------|
D|-------3-6-6-3-----------3-6-----6-3-----------3-6-6-3------------|
A|-1-3-4---------4---x-4-6---------------x-1-3-4---------x-6-4--6---|
E|------------------------------------------------------------------|

Verse 1:
G|---------------------------------------------------------------------------------------|
D|-------------------6--6--8---------------------------------------x-6--8----------------|
A|-6--6-4-6------4-4---------8-4--6--6-8---6--6-4-6------3--4--6----------8-4--6--6--8---|
E|----------6--6------------------------------------6--6---------6-----------------------|

G|------------------------------------------------------------------------------|
D|-------------------6--6--8--------------------------8-6-----------------------|
A|-6--6-4-6------4-4---------8-4--6--6-8---6--6-4-6-------8-6/4--4------6---4---|
E|----------6--6------------------------------------6---------------6-----6-----|


Chorus:
G|----3--------5-----------------------------------10-----------------6-6-8-8---|
D|-4-----3--6----6-3-6-----------3-6---4-----3--6----10-6-10--8-8h10-6---6------|
A|-------------------------1h3-4----------6-------------------------------------|
E|----------------------6-------------------------------------------------------|x4


Verse 2:
G|---------------------------------------------------------------------------------------|
D|-------------------6--6--8---------------------------------------x-6--8----------------|
A|-6--6-4-6------4-4---------8-4--6--6-8---6--6-4-6------3--4--6----------8-4--6--6--8---|
E|----------6--6------------------------------------6--6---------6-----------------------|

G|------------------------------------------------------------------------------|
D|-------------------6--6--8--------------------------8-6-----------------------|
A|-6--6-4-6------4-4---------8-4--6--6-8---6--6-4-6-------8-6/4--4------6---4---|
E|----------6--6------------------------------------6---------------6-----6-----|


Chorus:
G|----3--------5-----------------------------------10-----------------6-6-8-8---|
D|-4-----3--6----6-3-6-----------3-6---4-----3--6----10-6-10--8-8h10-6---6------|
A|-------------------------1h3-4----------6-------------------------------------|
E|----------------------6-------------------------------------------------------|x4


☠☠☠☠☠☠☠☠☠☠☠☠☠☠☠☠☠☠☠☠☠☠☠☠☠☠☠☠☠☠☠☠☠☠*

| /  Slide up
| h  Hammer-on
| x  Dead note

☠☠☠☠☠☠☠☠☠☠☠☠☠☠☠☠☠☠☠☠☠☠☠☠☠☠☠☠☠☠☠☠☠☠*

Almost there ...

Sign in to get your own page with links to favourite songs and more. You are just one click away...

Login with Facebook Login with Google