Log in

One click and you are in

Login with Facebook Login with Google

Why sign up and log in

Guitar Tabs Explorer
The Young Rascals bass tabs for Lonely too long

Lonely Too Long bass tab by The Young Rascals

The Young Rascals bass tabs for Lonely too long

Bass tabs

The_Young_Rascals-Lonely_Too_Long.btab

Basstab by Jan Bjorklund, Finland;
jani_bjorklund@yahoo.se
You are welcome to request for basstabs!
Bienvenidos a pedirme transcripciones para el bajo!
Fingering and positions as suggested by TablEdit.

TablEdited by Jan Bjorklund

Tuning : E A D G 	Time Signature: 4/4

 |    |    |    |    |    |    |    |
|--------------------------------|--------------------------------|
|--------------------------------|----------------3---4-----------|
|----------------------------3---|----------------------------3---|
|--------------------------------|--------------------------------|

 |    |    |    |    |    |    |    |
|----------------0---0-----------|------------------------0-------|
|--------------------------------|----------------3---4-----------|
|----------------------------3---|----------------------------3---|
|--------------------------------|--------------------------------|

 |    |    |    |    |    |    |    |
|----------------0---0-----------|------------------------0-------|
|--------------------------------|----------------3---4-----------|
|----------------------------3---|----------------------------3---|
|--------------------------------|--------------------------------|

 |    |    |    |    |    |    |    |
|----------------0---0-----------|------------------------0-------|
|--------------------------------|----------------3---4-----------|
|----------------------------3---|----------------------------3---|
|--------------------------------|--------------------------------|

 |    |    |    |    |    |    |    |
|----------------0---0-----------|2-------2-------2-------2-------|
|--------------------------------|--------------------------------|
|--------------------------------|--------------------------------|
|--------------------------------|--------------------------------|

 |    |    |    |    |    |    |    |
|--------------------------------|2-------2-------2-------2-------|
|0-------0-------0-------0-------|--------------------------------|
|--------------------------------|--------------------------------|
|--------------------------------|--------------------------------|

 |    |    |    |    |    |    |    |
|----------------------------0---|----------------0---0-----------|
|0---2-------3-------4-----------|--------------------------------|
|--------------------------------|3---------------------------3---|
|--------------------------------|--------------------------------|

 |    |    |    |    |    |    |    |
|------------------------0-------|----------------0---0-----------|
|----------------3---4-----------|--------------------------------|
|----------------------------3---|----------------------------3---|
|--------------------------------|--------------------------------|

 |    |    |    |    |    |    |    |
|------------------------0-------|5-------5-----------------------|
|----------------3---4-----------|--------------------------------|
|--------------------------------|----------------3-------3-------|
|--------------------------------|--------------------------------|

 |    |    |    |    |    |    |    |
|2-------2-------2-------2-------|5-------5-------5-------5-------|
|--------------------------------|--------------------------------|
|--------------------------------|--------------------------------|
|--------------------------------|--------------------------------|

 |    |    |    |    |    |    |    |
|2-------2-------2-------2-------|5-------5-------5-------5-------|
|--------------------------------|--------------------------------|
|--------------------------------|--------------------------------|
|--------------------------------|--------------------------------|

 |    |    |    |    |    |    |    |
|--------------------------------|--------------------------------|
|2-------2-------2-------2-------|3-------3-------3-------3-------|
|--------------------------------|--------------------------------|
|--------------------------------|--------------------------------|

 |    |    |    |    |    |    |    |
|--------------------------0-----|2---------------2---2-----------|
|0---2-------3-------4-----------|------------------------2---0---|
|--------------------------------|--------------------------------|
|--------------------------------|--------------------------------|

 |    |    |    |    |    |    |    |
|------------------------2-------|2---------------2---2-----------|
|--------------0---0---------0---|----------------------------0---|
|--------------------------------|--------------------------------|
|--------------------------------|--------------------------------|

 |    |    |    |    |    |    |    |
|----------------------------0---|----------------0---0-----------|
|----2-------3-------4-----------|--------------------------------|
|--------------------------------|3---------------------------3---|
|--------------------------------|--------------------------------|

 |    |    |    |    |    |    |    |
|------------------------0-------|----------------0---0-----------|
|----------------3---4-----------|--------------------------------|
|----------------------------3---|----------------------------3---|
|--------------------------------|--------------------------------|

 |    |    |    |    |    |    |    |
|------------------------0-------|2-------2-------2-------2-------|
|----------------3---4-----------|--------------------------------|
|--------------------------------|--------------------------------|
|--------------------------------|--------------------------------|

 |    |    |    |    |    |    |    |
|--------------------------------|2-------2-------2-------2-------|
|0-------0-------0-------0-------|--------------------------------|
|--------------------------------|--------------------------------|
|--------------------------------|--------------------------------|

 |    |    |    |    |    |    |    |
|----------------------------0---|----------------0---0-----------|
|0---2-------3-------4-----------|--------------------------------|
|--------------------------------|3---------------------------3---|
|--------------------------------|--------------------------------|

 |    |    |    |    |    |    |    |
|------------------------0-------|----------------0---0-----------|
|----------------3---4-----------|--------------------------------|
|----------------------------3---|--------------------------3-----|
|--------------------------------|--------------------------------|

 |    |    |    |    |    |    |    |
|------------------------0-------|5-------5-----------------------|
|----------------3---4-----------|--------------------------------|
|--------------------------------|----------------3-------3-------|
|--------------------------------|--------------------------------|

 |    |    |    |    |    |    |    |
|2-------2-------2-------2-------|5-------5-------5-------5-------|
|--------------------------------|--------------------------------|
|--------------------------------|--------------------------------|
|--------------------------------|--------------------------------|

 |    |    |    |    |    |    |    |
|2-------2-------2-------2-------|5-------5-------5-------5-------|
|--------------------------------|--------------------------------|
|--------------------------------|--------------------------------|
|--------------------------------|--------------------------------|

 |    |    |    |    |    |    |    |
|--------------------------------|--------------------------------|
|2-------2-------2-------2-------|3-------3-------3-------3-------|
|--------------------------------|--------------------------------|
|--------------------------------|--------------------------------|

 |    |    |    |    |    |    |    |
|--------------------------0-----|2---------------2---2-----------|
|0---2-------3-------4-----------|------------------------2---0---|
|--------------------------------|--------------------------------|
|--------------------------------|--------------------------------|

 |    |    |    |    |    |    |    |
|------------------------2-------|2---------------2---2-----------|
|--------------0---0---------0---|----------------------------0---|
|--------------------------------|--------------------------------|
|--------------------------------|--------------------------------|

 |    |    |    |    |    |    |    |
|----------------------------0---|----------------0---0-----------|
|----2-------3-------4-----------|--------------------------------|
|--------------------------------|3---------------------------3---|
|--------------------------------|--------------------------------|

 |    |    |    |    |    |    |    |
|------------------------0-------|----------------0---0-----------|
|----------------3---4-----------|--------------------------------|
|----------------------------3---|--------------------------3-----|
|--------------------------------|--------------------------------|

 |    |    |    |    |    |    |    |
|------------------------0-------|--------------------------------|
|----------------3---4-----------|--------------------------------|
|--------------------------------|3-------------------------------|
|--------------------------------|--------------------------------|

 |    |    |    |    |    |    |    |
|--------------------------------|--------------------------------|
|--------------------------------|--------------------------------|
|--------------------------------|--------------------------------|
|--------------------------------|--------------------------------|

 |    |    |    |    |    |    |    |
|--------------------------------|----------------0---0-----------|
|--------------------------------|--------------------------------|
|--------------------------------|3---------------------------3---|
|--------------------------------|--------------------------------|

 |    |    |    |    |    |    |    |
|------------------------0-------|----------------0---0-----------|
|----------------3---4-----------|--------------------------------|
|----------------------------3---|----------------------------3---|
|--------------------------------|--------------------------------|

 |    |    |    |    |    |    |    |
|------------------------0-------|----------------0---0-----------|
|----------------3---4-----------|--------------------------------|
|----------------------------3---|----------------------------3---|
|--------------------------------|--------------------------------|

 |    |    |    |    |    |    |    |
|------------------------0-------|----------------0---0-----------|
|----------------3---4-----------|--------------------------------|
|----------------------------3---|----------------------------3---|
|--------------------------------|--------------------------------|

 |    |    |    |    |    |    |    |
|------------------------0-------|5-------5-------5-------5-------|
|----------------3---4-----------|--------------------------------|
|--------------------------------|--------------------------------|
|--------------------------------|--------------------------------|

 |    |    |    |    |    |    |    |
|2-------2-------2-------2-------|5-------5-------5-------5-------|
|--------------------------------|--------------------------------|
|--------------------------------|--------------------------------|
|--------------------------------|--------------------------------|

 |    |    |    |    |    |    |    |
|2-------2-------2-------2-------|5-------5-------5-------5-------|
|--------------------------------|--------------------------------|
|--------------------------------|--------------------------------|
|--------------------------------|--------------------------------|

 |    |    |    |    |    |    |    |
|--------------------------------|--------------------------------|
|2-------2-------2-------2-------|3-------3-------3-------3---3-0-|
|--------------------------------|--------------------------------|
|--------------------------------|--------------------------------|

 |    |    |    |    |    |    |    |
|----------------------------0---|2-------------2---------2-------|
|----2-----3---------4-----------|--------------------2-------0---|
|--------------------------------|--------------------------------|
|--------------------------------|--------------------------------|

 |    |    |    |    |    |    |    |
|----------------2-------2-------|2-------2-------2-------2-------|
|------------0-------2---------0-|--------------------0-------0---|
|--------------------------------|--------------------------------|
|--------------------------------|--------------------------------|

 |    |    |    |    |    |    |    |
|----------------------------0---|----------------0---0-----------|
|----2-------3-------4-----------|--------------------------------|
|--------------------------------|3---------------------------3---|
|--------------------------------|--------------------------------|

 |    |    |    |    |    |    |    |
|------------------------0-------|----------------0---0-----------|
|----------------3---4-----------|--------------------------------|
|----------------------------3---|----------------------------3---|
|--------------------------------|--------------------------------|

 |    |    |    |    |    |    |    |
|------------------------0-------|----------------0---0-----------|
|----------------3---4-----------|--------------------------------|
|----------------------------3---|--------------------------3-----|
|--------------------------------|--------------------------------|

 |    |    |    |    |    |    |    |
|------------------------0-------|----------------0---0-----------|
|----------------3---4-----------|--------------------------------|
|----------------------------3---|----------------------------3---|
|--------------------------------|--------------------------------|

 |    |    |    |    |    |    |    |
|------------------------0-------|----------------0---0-----------|
|----------------3-----4---------|--------------------------------|
|----------------------------3---|----------------------------3---|
|--------------------------------|--------------------------------|

 |    |    |    |    |    |    |    |
|------------------------0-------|----------------0---0-----------|
|----------------3---4-----------|--------------------------------|
|----------------------------3---|----------------------------3---|
|--------------------------------|--------------------------------|

 |    |    |    |    |    |    |    |
|------------------------0-------|----------------0---0-----------|
|----------------3---4-----------|--------------------------------|
|----------------------------3---|----------------------------3---|
|--------------------------------|--------------------------------|

 |    |    |    |    |    |    |    |
|------------------------0-------|----------------0---0-----------|
|----------------3---4-----------|--------------------------------|
|----------------------------3---|----------------------------3---|
|--------------------------------|--------------------------------|

 |    |    |    |    |    |    |    |
|------------------------0-------|--------------0-----0-----------|
|----------------3---4-----------|--------------------------------|
|----------------------------3---|----------------------------3---|
|--------------------------------|--------------------------------|

 |    |    |    |    |    |    |    |
|------------------------0-------|----------------0---0-----------|
|----------------3---4-----------|--------------------------------|
|----------------------------3---|----------------------------3---|
|--------------------------------|--------------------------------|

 |    |    |    |    |    |    |    |
|------------------------0-------|----------------0---0-----------|
|--------------3-----4-----------|--------------------------------|
|----------------------------3---|----------------------------3---|
|--------------------------------|--------------------------------|

 |    |    |    |    |    |    |    |
|------------------------0-------|--------------------------------|
|----------------3---4-----------|--------------------------------|
|----------------------------3---|--------------------------------|
|--------------------------------|--------------------------------|

Almost there ...

Sign in to get your own page with links to favourite songs and more. You are just one click away...

Login with Facebook Login with Google