Log in

One click and you are in

Login with Facebook Login with Google

Why sign up and log in

Guitar Tabs Explorer
The Young Rascals bass tabs for Its a beautiful morning

Its A Beautiful Morning bass tab by The Young Rascals

The Young Rascals bass tabs for Its a beautiful morning

Bass tabs

the_young_rascals-it's_a_beautiful_morning.btab

Basstab by Jan Bjorklund, Finland;
jani_bjorklund@yahoo.se
You are welcome to request for basstabs!
Bienvenidos a pedirme transcripciones para el bajo!
Fingering and positions as suggested by TablEdit.

TablEdited by Jan Bjorklund

Tuning : E A D G 	Time Signature: 4/4

 |    |    |    |    |    |    |    |
|------------3-------------------|0-----------0-----------0---0---|
|1---------------1-1-1---3---3---|----------------0---0-----------|
|--------------------------------|--------------------------------|
|--------------------------------|--------------------------------|

 |    |    |    |    |    |    |    |
|--------------------------------|0-------------------------------|
|3-------------------------------|--------3-------1-----------1---|
|----------------3---3-----------|------------------------3-------|
|--------------------------------|--------------------------------|

 |    |    |    |    |    |    |    |
|------------3-------------------|0-----------0-----------0---0---|
|1---------------1-1-1---3---3---|----------------0---0-----------|
|--------------------------------|--------------------------------|
|--------------------------------|--------------------------------|

 |    |    |    |    |    |    |    |
|--------------------------------|--------0-------1-------3-------|
|3-------------------------------|3-------------------------------|
|----------------3---3-----------|----------------------------3---|
|--------------------------------|--------------------------------|

 |    |    |    |    |    |    |    |
|------------0-----0-----0-------|--------------------------3-5---|
|----------------------------1---|3---3-------3-----------5-------|
|3-------------------------------|----------------3---3-----------|
|--------------------------------|--------------------------------|

 |    |    |    |    |    |    |    |
|--------------------------------|--------------------------------|
|------------5-------------------|3-----------3---------------3---|
|--------------------5---3---6---|----------------3---3-----------|
|--------------------------------|--------------------------------|

 |    |    |    |    |    |    |    |
|0-----------2---3---2---0-------|--------------------------------|
|--------------------------------|--------0-------1-------2---2---|
|--------------------------1-2---|3---3---------------------------|
|--------------------------------|--------------------------------|

 |    |    |    |    |    |    |    |
|--------------------------------|--------------------------------|
|3-----------3-------------------|------------------------0-------|
|----------------------------0---|1-------3-------4---------------|
|----------------1---3---4-------|--------------------------------|

 |    |    |    |    |    |    |    |
|------------3-------------------|0-----------0-----------0---0---|
|1---------------1-1-1---3---3---|----------------0---0-----------|
|--------------------------------|--------------------------------|
|--------------------------------|--------------------------------|

 |    |    |    |    |    |    |    |
|--------------------------------|0-------------------------------|
|3-------------------------------|--------3-------1-----------1---|
|----------------3---3-----------|------------------------3-------|
|--------------------------------|--------------------------------|

 |    |    |    |    |    |    |    |
|------------3-------------------|0-----------0-----------0---0---|
|1---------------1-1-1---3---3---|----------------0---0-----------|
|--------------------------------|--------------------------------|
|--------------------------------|--------------------------------|

 |    |    |    |    |    |    |    |
|--------------------------------|--------0-------1-------3-------|
|3-------------------------------|3-------------------------------|
|----------------3---3-----------|----------------------------3---|
|--------------------------------|--------------------------------|

 |    |    |    |    |    |    |    |
|5-------------------------------|--------------------------3-5---|
|------------5-------------------|3---3-------3-----------5-------|
|------------------6-----5---6---|----------------3---3-----------|
|--------------------6-----------|--------------------------------|

 |    |    |    |    |    |    |    |
|--------------------------------|--------------------------------|
|------------5-------------------|3-----------3---------------3---|
|--------------------5---3---6---|----------------3---3-----------|
|--------------------------------|--------------------------------|

 |    |    |    |    |    |    |    |
|0-----------2---3---2---0-------|--------------------------------|
|--------------------------------|--------0-------1-------2---2---|
|--------------------------1-2---|3---3---------------------------|
|--------------------------------|--------------------------------|

 |    |    |    |    |    |    |    |
|--------0---0---1---1---0-------|--------------------------------|
|3---3-----------------------1---|3---3---------------------------|
|--------------------------------|--------------------------------|
|--------------------------------|--------1-------3-------4-------|

 |    |    |    |    |    |    |    |
|--------------------------------|--------------------------------|
|--------------------------------|----------------------------0---|
|1-------1-------1-------1-------|1-------1-------1---1---3-------|
|--------------------------------|--------------------------------|

 |    |    |    |    |    |    |    |
|------------3-------------------|0-----------0-----------0---0---|
|1---------------1-1-1---3---3---|----------------0---0-----------|
|--------------------------------|--------------------------------|
|--------------------------------|--------------------------------|

 |    |    |    |    |    |    |    |
|--------------------------------|----------------3---------------|
|3-------------------------------|----------------------------0---|
|----------------3---3-----------|1-----------1-------1---3-------|
|--------------------------------|--------------------------------|

 |    |    |    |    |    |    |    |
|------------3-------------------|0-----------0-----------0---0---|
|1---------------1-1-1---3---3---|----------------0---0-----------|
|--------------------------------|--------------------------------|
|--------------------------------|--------------------------------|

 |    |    |    |    |    |    |    |
|--------------------------------|--------0-------1-------3-------|
|3-------------------------------|3-------------------------------|
|----------------3---3-----------|----------------------------3---|
|--------------------------------|--------------------------------|

 |    |    |    |    |    |    |    |
|5-------------------------------|--------------------------------|
|--------------------------------|3-----------------------3-------|
|----------------3---------------|----------------3---------------|
|--------------------------------|--------------------------------|

 |    |    |    |    |    |    |    |
|5-----------------------5-------|------------5-------------------|
|--------------------------------|3-----------------------4-------|
|--------3-----------------------|--------------------------------|
|--------------------------------|----------------1---------------|

 |    |    |    |    |    |    |    |
|--------------------------------|--------------------------------|
|--------------------------------|--------0---0---1---1---2---2---|
|--------0---0---1---1---2-1-3---|3---3---------------------------|
|3---3---------------------------|--------------------------------|

 |    |    |    |    |    |    |    |
|--------0---0---1---1---0-------|--------------------------------|
|3---3-----------------------1---|3---3---------------------------|
|--------------------------------|--------------------------------|
|--------------------------------|--------1-------3-------4-------|

 |    |    |    |    |    |    |    |
|--------------------------------|--------------------------------|
|--------------------------------|--------------------------------|
|1-------1-------1-------1-------|1-------1-------1-------1-------|
|--------------------------------|--------------------------------|

 |    |    |    |    |    |    |    |
|--------------------------------|--------------------------------|
|--------------------------------|----------------------------0---|
|1-------1-------1-------1-------|1-------1-------1---1---3-------|
|--------------------------------|--------------------------------|

 |    |    |    |    |    |    |    |
|------------3-------------------|0-----------0-----------0---0---|
|1---------------1-1-1---3---3---|----------------0---0-----------|
|--------------------------------|--------------------------------|
|--------------------------------|--------------------------------|

 |    |    |    |    |    |    |    |
|--------------------------------|0-------------------------------|
|3-------------------------------|--------3-------1-----------1---|
|----------------3---3-----------|------------------------3-------|
|--------------------------------|--------------------------------|

 |    |    |    |    |    |    |    |
|------------3-------------------|0-----------0-----------0---0---|
|1---------------1-1-1---3---3---|----------------0---0-----------|
|--------------------------------|--------------------------------|
|--------------------------------|--------------------------------|

 |    |    |    |    |    |    |    |
|--------------------------------|0-------------------------------|
|3-------------------------------|--------3-------1-----------1---|
|----------------3---3-----------|------------------------3-------|
|--------------------------------|--------------------------------|

 |    |    |    |    |    |    |    |
|------------3-------------------|0-----------0-----------0---0---|
|1---------------1-1-1---3---3---|----------------0---0-----------|
|--------------------------------|--------------------------------|
|--------------------------------|--------------------------------|

 |    |    |    |    |    |    |    |
|--------------------------------|0-------------------------------|
|3-------------------------------|--------3-------1-----------1---|
|----------------3---3-----------|------------------------3-------|
|--------------------------------|--------------------------------|

 |    |    |    |    |    |    |    |
|------------3-------------------|0-----------0-----------0---0---|
|1---------------1-1-1---3---3---|----------------0---0-----------|
|--------------------------------|--------------------------------|
|--------------------------------|--------------------------------|

 |    |    |    |    |    |    |    |
|--------------------------------|0-------------------------------|
|3-------------------------------|--------3-------1-----------1---|
|----------------3---3-----------|------------------------3-------|
|--------------------------------|--------------------------------|

 |    |    |    |    |    |    |    |
|------------3-------------------|0-----------0-----------0---0---|
|1---------------1-1-1---3---3---|----------------0---0-----------|
|--------------------------------|--------------------------------|
|--------------------------------|--------------------------------|

 |    |    |    |    |    |    |    |
|--------------------------------|0-------------------------------|
|3-------------------------------|--------3-------1-----------1---|
|----------------3---3-----------|------------------------3-------|
|--------------------------------|--------------------------------|

Almost there ...

Sign in to get your own page with links to favourite songs and more. You are just one click away...

Login with Facebook Login with Google