Log in

One click and you are in

Login with Facebook Login with Google

Why sign up and log in

Guitar Tabs Explorer
Neil Young chords for Hey hey my my ukulele

Guitar chords with lyrics

Tuning: G C E A (G C E A)

Key: Dm

Difficulty: Intermediate
Riff 1
  Dm\t\t  C\t\t   Dm\t\t\t\t
A|--0----------------3---------------0----1-0-1-0-1-0--1-0-1-0-1-0---|
E|--1-----0--1--3----0--0------------1----1-0-1-0-1-0--1-0-1-0-1-0---|  x2
C|--2---2------------0-----2--0--2---2----------------2--------------|
G|--2----------------0---------------2-------------------------------|


Riff 2
  F\t      C\t\t     Dm\t      Bb
A|-0---------0--3--3---------5--3--0------0---0-0-0-0-0-0--1---1-0-1-0-1-0|
E|-1---1--3--------0------0---------------1---1-0-1-0-1-0--1---1-0-1-0-1-0|
C|-0---------------0---0--------------2---2----------------2--------------|
G|-2---------------0----------------------2----------------3--------------|


(Riff)

Dm  C    A#
Hey, Hey, My, My.
Dm   C       A#
Rock N Roll Can Never Die.
F          C    Dm         A#
There's More To The Picture, Than What Meets The Eye.
Dm  C    A#
Hey, Hey, My, My.

(Riff)

Dm     C         A#
Out Of The Blue, And Into The Black.
Dm     C            A#
You Pay For This, But They Give You That.
F       C   Dm       A#
And Once Your Gone, You Can't Come Back,
Dm         C         A#
When Your Outta The Blue And Into The Black.

(Riff)

Dm      C          A#
The King Is Gone, But He's Not Forgotten.
Dm      C          A#
This Is The Story Of The Johnny Rotten.
F          C  Dm        A#
It's Better To Burn Out, Cause Rust Never Sleeps.
Dm      C          A#
The King Is Gone, But He's Not Forgotten.

(Riff)

Dm  C    A#
Hey, Hey, My, My.
Dm   C       A#
Rock N Roll Can Never Die.
F          C    Dm       A#
There's More To The Picture, Than Meets The Eye.
Dm  C    A#
Hey, Hey, My, My.

(Riff)

Almost there ...

Sign in to get your own page with links to favourite songs and more. You are just one click away...

Login with Facebook Login with Google