Log in

One click and you are in

Login with Facebook Login with Google

Why sign up and log in

Guitar Tabs Explorer
You Am I tabs for Moon shines over trubble

Guitar tabs

MOON SHINES OVER TRUBBLE

Transcribed by Oliver Watkins (ofwat1@student.monash.edu.au or watkinsa@melbpc.org.au)

OK - tabbing out the hammond organ part isn't going to be easy. Just
remember to play the organ chords abrubtly (stachato - whatever). Like
a Madness song.

I have no idea what the best fingering would be. Mine seem to get
tangled up playing this. I just had to include the bass, or the
song doesn't work.
(Verse - Organ)

  A chord diagramB minorBm	     Bm/D	Bm/G#		Bm/G	F#/open
-------|-----------|---------|-------|--------|----0------
---3---|------3----|-----3---|---3---|-----3--|----0------
---4---|------4----|-----4---|---4---|-----4--|----3------
---4---|------4----|-----4---|---4---|-----4--|----4------
---2---|----2-5----|---5-----|-------|--------|--4-4------
-------|-----------|-----4---|---4---|---4-3--|--2-2------

(Alternately you can just play Bm, and get your friend to play the
bass part)

(Chorus - guitar)


    B/open	B/open/Bb	A/open		A chord diagramE MajorE      A chord diagramC#7C#7 A chord diagramD7D7
------0------------0--------------0--------------0--------------
------0------------0--------------0--------------0-------6--7---
------8------------8--------------6--------------1-------4--5---
------9------------9--------------7--------------2-------6--7---
----9-9------------9--------------7--------------2-------4--5---
----7-7------------6--------------5--------------0--------------


fill-1

   A chord diagramBB		     A chord diagramE7E7	     A chord diagramD7D7
---------------------------------------------
---------------------9-9-----7-7-------------
-----4--------2------7-7-----5-5-------------
-----4--2h3h4--------9-9-----7-7------------- - repeat * 2
---2-2---------------7-7-----5-5-------------
---------------------------------------------

fill-2

(repeat * 2)
----------------------------------------------------------------
-----0----------------0---------------0--------------0----------
---------2----------------2---------------2--------------2------
-----------4-------0--------4---------------4--------------4----
--2-----------------------------------------------------------
-----------------------------------4--------------3-------------


A chord diagramB minorBm	    Bm/D
Moon shines hard ...
Bm/G#
Check you watch by the ...
Bm/G			    F#/open
...she tries hard ...

A chord diagramB minorBm			  Bm/D
Are you going to tell 'em ...
Bm/G#
when you're dressed ...
Bm/G					     F#/open
...is the morning ...

B/open
A chord diagramA augmentedA hundred halls ...
B/open/Bb
you thought you'd avoid ...
A/open			        A chord diagramE MajorE	A chord diagramC#7C#7 A chord diagramD7D7
Just waiting for ...

B/open
All your ...
B/open/Bb
Are losing their hair ...
A/open				A chord diagramE MajorE	A chord diagramC#7C#7 A chord diagramD7D7
Who are you going to ...

(fill-1)
(fill-2)


A chord diagramB minorBm			Bm/D
Pay the bills for ...
Bm/G#
lives on bananas and ...
Bm/G					    F#/open
...Keeps his teeth in a glass ...

A chord diagramB minorBm			  Bm/D
Are you going to tell ...
Bm/G#
Now that the kids are ...
Bm/G					F#/open
....Is the city big enough ...

B/open
A chord diagramA augmentedA hundred ...
B/open/Bb
You thought you'd ...
A/open			    A chord diagramE MajorE	  A chord diagramC#7C#7  A chord diagramD7D7
Waiting for the way ...

B/open
All your ...
B/open/Bb
are losing their hair ...
A/open				A chord diagramE MajorE       A chord diagramC#7C#7  A chord diagramD7D7
who are you going to ...

(fill - 1)
(fill - 2)


(Figuring out the lyrics was the hardest part)
(alternately the lyrics to the chorus could be "a hundred whores and
brothels" which means I completely mis-interpreted the song!!)

Almost there ...

Sign in to get your own page with links to favourite songs and more. You are just one click away...

Login with Facebook Login with Google