Log in

One click and you are in

Login with Facebook Login with Google

Why sign up and log in

Guitar Tabs Explorer
You Am I guitar tabs for Forever and easy

Guitar tabs with lyrics

FOREVER AND EASY - YOU AM I

Dropped-G Tuning

  Eopen  A chord diagramC6C6   A chord diagramE MajorE    A chord diagramD MajorD   A chord diagramA augmentedA
e--x-----x----x----x---x--------------|
b--x-----x----9----7---2--------------|
g--x-----x----9----7---2--------------|
d--x-----7----9----7---2--------------|
g--x-----5----9----7---2--------------|
e--0-----5----x----x---x--------------|

e-------------------------------------          e--------------------|
b--------------------10---10----------          b---------------9----|
g--7b-x-0-7---x-9--9-11-9-11-9-9-x----  x3      g--7b-x-0-7---x-9----|
d--7b-x-0-7h9-x-9--9-9--9-9--9-9-x----          d--7b-x-0-7h9-x-9----|
g-----x-------x-x--x-x--x-x--x-x-x----          g-----x-------x-x----|
e---------------0--0-0--0-0--0-0------          e---------------0----|

Rhy. Fig. 1  x2
e--------------------------------------------------------------------|
b--------------------------------------------------------------------|
g--------------------------------------------------------------------|
d-4/6-x-x-6-x-6/9-9-x-x-9-x-x-9/11-x-x-11-x-7--7--7--7--7--7---------|
g-2/4-x-x-4-x-4/7-7-x-x-7-x-x-7/9--x-x-9--x-5--5--5--5--5--5--0------|
e-0-------0---0---0-----0-----0--------0----5--5--5--5--5--5--0------|

w/ rhy. fig. 1  x4
Dress me right and just because it's a Sunday
You can feel me writing just because I'm cheap
If you want to claim any boy's own ending
If you want to win just for the ten


CHORUS
I'm free
e-------------------------------------|
b---------------9----10---10----------|
g--7--7-7-7---x-9--9-11-9-11-9-9-x----|          x3
d--7--7-7-7h9-x-9--9-9--9-9--9-9-x----|
g--0--0-0-0---x-x--x-x--x-x--x-x-x----|
e---------------0--0-0--0-0--0-0------|

Why ain't I free?
e------------------------------------|
b---------------9--------------------|
g--7--7-7-7---x-9--9-9-9-9--9-9-x----|
d--7--7-7-7h9-x-9--9-9-9-9--9-9-x----|
g--0--0-0-0---x-x--x-x-x-x--x-x-x----|
e---------------0--0-0-0-0--0-0------|

Rhy. Fig. 1  x2

Eopen let ring
                                                        A chord diagramC6C6
Fill me up and I pretend you're someone special
A chord diagramE5E5 let ring                                                               A chord diagramC6C6
I can make you believe I'm only in it just for the plea
w/ rhy. fig. 1  x2
Yeah, but if you want to shit in any kind of ending
If you want to break my ice and leave

REPEAT CHORUS

Rhy. Fig. 2  x1
e-------------------------------------------------------|
b-------10---10---10-10-9----------8---8---8-8-7--------|
g--9-9--11-9-11-9-11-11-9-9-9-7-7--7-7-7-7-7-7-7-7-7----|
d--9-9--9--9-9--9-9--9--9-9-9-7-7--7-7-7-7-7-7-7-7-7----|
g--x-x--x--x-x--x-x--x--x-x-x-7-7--7-7-7-7-7-7-7-7-7----|
e--0-0--0--0-0--0-0--0--0-0-0---------------------------|

e-----------------------------------------------------|
b------2---3-3-3-3-3-3-3--------9---9-9-9-9-9-9-9-----|
g--2-2-2-2-4-4-4-4-4-4-4-0-/9-9-9-9-9-9-9-9-9-9-9-----|
d--2-2-2-2-2-2-2-2-2-2-2-0-/9-9-9-9-9-9-9-9-9-9-9-----|
g--2-2-2-2-2-2-2-2-2-2-2-0--x-x-x-x-x-x-x-x-x-x-x-----|
e---------------------------0-0-0-0-0-0-0-0-0-0-0-----|

e-------------------------------------------------------|
b-------10---10---10-10-9----------8---8---8-8-7--------|
g--9-9--11-9-11-9-11-11-9-9-9-7-7--7-7-7-7-7-7-7-7-7----|
d--9-9--9--9-9--9-9--9--9-9-9-7-7--7-7-7-7-7-7-7-7-7----|
g--x-x--x--x-x--x-x--x--x-x-x-7-7--7-7-7-7-7-7-7-7-7----|
e--0-0--0--0-0--0-0--0--0-0-0---------------------------|
                Why ain't I
e-----------------------------|
b------2---3-3-3-3-3-3-3------|
g--2-2-2-2-4-4-4-4-4-4-4-0----|
d--2-2-2-2-2-2-2-2-2-2-2-0----|
g--2-2-2-2-2-2-2-2-2-2-2-0----|
e-----------------------------|

Rhy. Fig. 1  x2

w/ rhy. fig. 1  x4
Just go riding just because it's a Sunday
Feel me writing just because I'm cheap
Yeah but if you want to claim any boy's own ending
If you want to break me out for free

REPEAT CHORUS

Rhy. Fig. 2  x2

w/ rhy. fig. 2  x3
Oh Take me easy, take me easy, take me easy I can t keep my time
Oh Take me easy, take me easy, take me easy I can t keep your time
Easy, easy, easy

A chord diagramE MajorE let ring        A chord diagramD MajorD let ring            A chord diagramA augmentedA let ring
Easy, take me easy, you can take me easy
                        A chord diagramE MajorE free time
I can t keep your time

e----------|
b----------|
g----------|     to finish
d---9\-----|
g---9\-----|

Almost there ...

Sign in to get your own page with links to favourite songs and more. You are just one click away...

Login with Facebook Login with Google