Log in

One click and you are in

Login with Facebook Login with Google

Why sign up and log in

Guitar Tabs Explorer
You Am I guitar tabs for Coprolalia

Guitar tabs

Tuning: Standard (E A D G B E)


Main Riff

e|-----------|
B|--3--------|
G|--2--------|
D|--0--3-4-5-|  X 3
A|--0--3-4-5-|
E|-----1-2-3-|

e|----------|
B|----------|
G|--8-------|
D|--8-------|
A|--6-------|
E|----------|


Chorus:

e|--------|
B|--------|
G|------8-|
D|--2-5-8-|
A|--2-5-6-|
E|--0-3---|

So thats most of the song. In some of the verses Tim just seems to feed a A chord diagramD MajorD chord while the bass keeps
going. There is also that middle 8 riff that comes in... i am a little tentative on it but below
is a rough attempt. Its pretty close anyway.

e|-------------|
B|--3----------|
G|--2--------6-|
D|--0--3-4-5-6-|
A|--0--3-4-5-4-|
E|-----1-2-3---|

Transcribed by Robert J

Almost there ...

Sign in to get your own page with links to favourite songs and more. You are just one click away...

Login with Facebook Login with Google