Log in

One click and you are in

Login with Facebook Login with Google

Why sign up and log in

Guitar Tabs Explorer
Pete Yorn bass tabs for Just another acoustic

Bass tabs with lyrics

This is for the acoustic version of the song (which he plays in standard tuning).
Reference video here: https://www.youtube.com/watch v=ob-xJt8B3jM


Intro:
x2 (in recording bass would come in on 3rd repeat of 4, as guitar plays by itself for 2 measures)
   C      A
G|-----------------------|
D|-----------------------|
A|-3-3-3-3-3-------------|
E|------------5-5-5-5-5--|
Verse 1:
   C      A
G|-----------------------|
D|-----------------------|
A|-3-3-3-3-3-------------|
E|------------5-5-5-5-5--|
You and I we're two of a kind

   C     A      D
G|---------------------------------|
D|---------------------------------|
A|-3-3-3-3-3------------5-5-5-5-5--|
E|-----------5-5-5-5-5-------------|
I hate to say it but you'll never relate what makes you tick

    F     C     A
G|--------------------------------|
D|--------------------------------|
A|-----------3-3-3-3-3------------|
E|-1-1-1-1-1-----------5-5-5-5-5--|
It makes me smile

   C      A
G|-----------------------|
D|-----------------------|
A|-3-3-3-3-3-------------|
E|------------5-5-5-5-5--|
You said that I should get away from it all

    C     A       D
G|----------------------------------|
D|----------------------------------|
A|-3-3-3-3-3-------------5-5-5-5-5--|
E|-----------5-5-5-5-5--------------|
And bury my head in the sand if I want to...I think you

    F     C     C
G|---------------------------------|
D|---------------------------------|
A|-----------3-3-3-3-3--3-3-3-3-3--|
E|-1-1-1-1-1-----------------------|
Should thank me now


Chorus 1:
    F     E
G|-----------------------|
D|-3-3-3-3-3--2-2-2-2-2--|
A|-----------------------|
E|-----------------------|
You were lying wide awake in the garden

    F     E
G|-----------------------|
D|-3-3-3-3-3--2-2-2-2-2--|
A|-----------------------|
E|-----------------------|
Trying to get over your stardom

    D     E
G|-----------------------|
D|------------2-2-2-2-2--|
A|-5-5-5-5-5-------------|
E|-----------------------|
And I could never see you depart us

   G     C      A
G|---------------------------------|
D|-5-5-5-5-5-----------------------|
A|------------3-3-3-3-3------------|
E|----------------------5-5-5-5-5--|
And you're my baby   you're just another girl

Post Chorus 1:
x4
   C      A
G|-----------------------|
D|-----------------------|
A|-3-3-3-3-3-------------|
E|------------5-5-5-5-5--|


Verse 2:
    C      A
G|-----------------------|
D|-----------------------|
A|-3-3-3-3-3-------------|
E|------------5-5-5-5-5--|
I never mind the way I had to see ya

   C     A      D
G|---------------------------------|
D|---------------------------------|
A|-3-3-3-3-3------------5-5-5-5-5--|
E|-----------5-5-5-5-5-------------|
My working on a day sure never explains why I see you

    F     C     A
G|--------------------------------|
D|--------------------------------|
A|-----------3-3-3-3-3------------|
A|-1-1-1-1-1-----------5-5-5-5-5--|
And I feel your pain

   C      A
G|-----------------------|
D|-----------------------|
A|-3-3-3-3-3-------------|
E|------------5-5-5-5-5--|
I love to wear my work inside of my head

   C     A       D
G|----------------------------------|
D|----------------------------------|
A|-3-3-3-3-3-------------5-5-5-5-5--|
E|-----------5-5-5-5-5--------------|
I can't complain but you should never react the way you did

    F     C     C
G|---------------------------------|
D|---------------------------------|
A|-----------3-3-3-3-3--3-3-3-3-3--|
E|-1-1-1-1-1-----------------------|
I feel your time


Chorus 3:
    F     E
G|-----------------------|
D|-3-3-3-3-3--2-2-2-2-2--|
A|-----------------------|
E|-----------------------|
You were lying wide awake in the garden

    F     E
G|-----------------------|
D|-3-3-3-3-3--2-2-2-2-2--|
A|-----------------------|
E|-----------------------|
Trying to get over your stardom

    D     E
G|-----------------------|
D|------------2-2-2-2-2--|
A|-5-5-5-5-5-------------|
E|-----------------------|
And I could never see you depart us

   G     C
G|-----------------------|
D|-5-5-5-5-5-------------|
A|-----------------------|
E|-----------------------|
And you're my baby....


Chorus 4:
    F     E
G|-----------------------|
D|-3-3-3-3-3--2-2-2-2-2--|
A|-----------------------|
E|-----------------------|
You were lying wide awake in the garden

    F     E
G|-----------------------|
D|-3-3-3-3-3--2-2-2-2-2--|
A|-----------------------|
E|-----------------------|
Trying to get over your stardom

    D     E
G|-----------------------|
D|------------2-2-2-2-2--|
A|-5-5-5-5-5-------------|
E|-----------------------|
And I could never see you depart us

    G
G|------------|
D|-5-5-5-5-5--|
A|------------|
E|------------|
And you're my baby

Post Chorus 4:
x2
   C      F
G|-----------------------|
D|-----------------------|
A|-3-3-3-3-3-------------|
E|------------1-1-1-1-1--|
You're just another girl


Bridge 1:
(repeat G chord several times)
    A     D     F    G
G|-------------------------------------------|
D|-------------------------------------------|
A|-----------5-5-5-5-5-----------------------|
E|-5-5-5-5-5-----------1-1-1-1-1--3-3-3-3-3--|
She's just another g-i-r-l....oooh


Outro:
x3 (end of C note of 4th repeat)
   C      A
G|-----------------------|
D|-----------------------|
A|-3-3-3-3-3-------------|
E|------------5-5-5-5-5--|

Almost there ...

Sign in to get your own page with links to favourite songs and more. You are just one click away...

Login with Facebook Login with Google