Log in

One click and you are in

Login with Facebook Login with Google

Why sign up and log in

Guitar Tabs Explorer
Yoon Mi Rae guitar tabs for Flower

Guitar tabs

  • Capo on 1st
Tuning: Standard (E A D G B E)

Crash Landing On You OST


Standard Tuning: CAPO on 1st fret for strumming only

Chords for strumming: Guitar 1
__________________

Verse and Chords
A chord diagramC majorC - A chord diagramG MajorG - A chord diagramA minorAm - A chord diagramG MajorG
A chord diagramFF - A chord diagramC majorC - A chord diagramFF - A chord diagramG MajorG
Pre-Chorus
A chord diagramA minorAm - A chord diagramG MajorG - A chord diagramC majorC
A chord diagramA minorAm - A chord diagramG MajorG - A chord diagramFF
__________________

(Melody) - Guitar 2

(Verse)

A chord diagramC majorC - A chord diagramG MajorG - A chord diagramA minorAm - A chord diagramG MajorG
A chord diagramFF - A chord diagramC majorC - A chord diagramFF - A chord diagramG MajorG

e|-----------------|-----------------|---------|---------|
B|-----6-----5s6---|-----6-----5s6---|-----6---|-----6---|
G|-6-8---6-8-----8-|-6-8---6-8-----6-|-6-8---8-|-6-8---6-|
D|-----------------|-----------------|---------|---------|
A|-----------------|-----------------|---------|---------|
E|-----------------|-----------------|---------|---------|

e|----------------|---------------|---------------|
B|----------------|-6-6-------6---|-9-9-6---6-7-6-|
G|-6s8--8-6-8-6-6-|-----8-6-8---8-|-------8-------|
D|----------------|---------------|---------------|
A|----------------|---------------|---------------|
E|----------------|---------------|---------------|

e|-------------|--------------------|
B|--6--6--6----|---6--6--6s7--6-----|
G|-8--8--8--8--|-8--8--8--------8-6-|
D|-------------|--------------------|
A|-------------|--------------------|
E|-------------|--------------------|

(Pre-chorus)

A chord diagramA minorAm - A chord diagramG MajorG - A chord diagramC majorC
A chord diagramA minorAm - A chord diagramG MajorG - A chord diagramFF

e|---9-8-9-8---------|----------------|-9-8-9-8-9-----|-----------------|
B|-----------9-9-6-6-|-6-6-----5s6--6-|-----------9-9-|-------------6---|
G|-6-----------------|-----8-8--------|---------------|-6-8-6-8-6-8---8-|
D|-------------------|----------------|---------------|-----------------|
A|-------------------|----------------|---------------|-----------------|
E|-------------------|----------------|---------------|-----------------|

(Chorus)

A chord diagramC majorC - A chord diagramG MajorG - A chord diagramA minorAm - A chord diagramG MajorG
A chord diagramFF - A chord diagramC majorC - A chord diagramFF - A chord diagramG MajorG

e|----------------------|----------------------|
B|-7s9--9-7---7-9-7-----|-7s9--9-7---7-9-7-----|
G|----------9-------9-9-|----------9-------9-9-|
D|----------------------|----------------------|
A|----------------------|----------------------|
E|----------------------|----------------------|

e|-4s5----------|------------|
B|-----9-7s9----|-7-6s7--6-6-|
G|-----------11-|------------|
D|--------------|------------|
A|--------------|------------|
E|--------------|------------|

e|----------------------|-9-8-9-8-6-6-6s8------|
B|-7s9--9-7---7-9-7-----|-----------------11-9-|
G|----------9-------9-9-|----------------------|
D|----------------------|----------------------|
A|----------------------|----------------------|
E|----------------------|----------------------|

e|---------------------|
B|-----6-------6-------|
G|-6-8---8-6-8---8-6-6-|
D|---------------------|
A|---------------------|
E|---------------------|

(Outro)

A chord diagramC majorC - A chord diagramG MajorG - A chord diagramA minorAm - A chord diagramG MajorG
A chord diagramFF - A chord diagramC majorC - A chord diagramFF - A chord diagramG MajorG

↓ Add and view comments below ↓

What do you think about this song and these tabs?

Add your comments, questions, rant or a thumbs up below.

Almost there ...

Sign in to get your own page with links to favourite songs and more. You are just one click away...

Login with Facebook Login with Google