Log in

One click and you are in

Login with Facebook Login with Google

Why sign up and log in

Guitar Tabs Explorer
Yoasobi bass tabs for 夜に駆ける

Bass tabs

Tuning: Standard (E A D G)


Intro:

G|-----------------------5----5-----------------------------------5----5-----6----8--|
D|--6----6----5----5---------------8----8----6----6----5----5------------------------|
A|----------------------3----3-----------------------------------3----3-----4----6---|
E|-4----4----3----3---------------6----6----4----4----3----3-------------------------|

G|-----------------------5----5-----------------------------------5----5-----5----5--|
D|--6----6----5----5---------------8----8----6----6----5----5------------------------|
A|----------------------3----3-----------------------------------3----3-----3----3---|
E|-4----4----3----3---------------6----6----4----4----3----3-------------------------|

Verse 1:

G|---------------------------------------------------------------------------|
D|-6---6-6----6--5----5--3-5--5----------------------------------------------|
A|--------------------------------------------------6------------------------|
E|-------------------------------8--8---6-8--6---6---------------------------|

G|----------------------------------------------------8----------------------|
D|-6--5-6-----6-5--5-3-5-3-5-------------------------------------------------|
A|-----------6-------------------------------------------6-------------------|
E|----------------------------3----8--8---6-8--6---6-------------------------|

G|-------------3---3-3-5---3-----------------------------5-5-----------------|
D|-6--6-6----6-----------5---3-5---5--5-5-3-5----------------5-3-------------|
A|---------6------------------------------------3---3-1-3--------------------|
E|--------------------------------------------3------------------------------|

G|-----------------------------------------3-5-------------------------------|
D|-6--5-6-----6-5---5----5-3-5-----------------------------------------------|
A|---------6-------------------3-----3-1-3------3-3-3---3--------------------|
E|--------------------4------------------------------------------------------|

G|-----------------------5----5-----------------------------------5----5----6----8--|
D|--6----6----5----5---------------8----8----6----6----5----5-----------------------|
A|----------------------3----3-----------------------------------3----3----4----6---|
E|-4----4----3----3--------------6----6----4----4----3----3-------------------------|

G|---------------------------------5----5-------------------------5----5----5----5--|
D|--6----6----8----8----5----5---------------6----6----5----5-----------------------|
A|-------------------------------3----3--------------------------3----3----3----3---|
E|-4----4----6----6----3----3--------------4----4----3----3-------------------------|

Pre-Chorus:

G|------6-----------------5-------------------6----------5--3-5-----------------------1-|
D|----6-----------------5------3---------------------------------3---3--3--3--2--1--1---|
A|-4--------4-6------3-------3-------4---4--4----4-3--3--------3------------------------|
E|--------------------------------------------------------------------------------------|

G|-------------------8------------------------------------------------------------------|
D|--------------------------------5-----3--3--6-----------------------------------------|
A|-4-----4--4--6--6-----6---7--7-----3-----------3---4----------4---3--3-3--3-3-3-------|
E|----4--------------------------------------------------4--4---------------------------|


Chorus:

G|---------------------------------5----5------------------------5----5----6----8----|
D|--6----6----8----8----5----5---------------6----6----5----5------------------------|
A|-------------------------------3----3-------------------------3----3----4----6-----|
E|-4----4----6----6----3----3---------------4----4----3----3-------------------------|

G|---------------------------------5----5--------------------------------------------|
D|--6----6----8----8----5----5---------------6----6----6----6----5----5----5----5----|
A|-------------------------------3----3----------------------------------------------|
E|-4----4----6----6----3----3---------------4----4----4----4----3----3----3----3-----|

G|---------------------------------5----5------------------------5----5----6----8----|
D|--6----6----8----8----5----5---------------6----6----5----5------------------------|
A|-------------------------------3----3 ------------------------3----3----4----6-----|
E|-4----4----6----6----3----3---------------4----4----3----3-------------------------|

G|-----------------------------------------------------------------------------------|
D|--6----6----8----8----9----9----10----10--------3-5--------------------------------|
A|-----------------------------------------------------------------------------------|
E|-4----4----6----6----7----7----8----8----4--3-4----4-6--6--------------------------|


Intro:

G|-----------------------5----5-----------------------------------5----5-----6----8--|
D|--6----6----5----5---------------8----8----6----6----5----5------------------------|
A|----------------------3----3-----------------------------------3----3-----4----6---|
E|-4----4----3----3---------------6----6----4----4----3----3-------------------------|

G|-----------------------5----5-----------------------------------5----5-----5----5--|
D|--6----6----5----5---------------8----8----6----6----5----5------------------------|
A|----------------------3----3-----------------------------------3----3-----3----3---|
E|-4----4----3----3---------------6----6----4----4----3----3-------------------------|


Verse 2:

G|--------------------------5-------8----------------------------3-5-3-----------------|
D|----6-8-5-6----3-5------------8-----------6--6-------5--5---------5------------------|
A|--------------------3---3---3-------6---------------------3--3--------4--4--6--6-----|
E|-4----------3-3----3------------6-----4--4----3-4-3-3--------------------------------|

G|-------1-3-------3--3------4-------------5------------------------------3-5--------5-------5----|
D|----------3-5-------------------------------------------6-----3-5-----------3-5--5---5---5---5--|
A|-------------1--1-----2---2--2--2-3--3--3--3----------6---6---------3--3-------3-------3--------|
E|-4--4-------------------------3---------------4--4--4-------3----3-3----------------------------|

Pre-In:

G|-----------------------5----5-----------------------------------5----5----6----8--|
D|--6----6----5----5---------------8----8----6----6----5----5-----------------------|
A|----------------------3----3-----------------------------------3----3----4----6---|
E|-4----4----3----3--------------6----6----4----4----3----3-------------------------|

G|---------------------------------5----5-------------------------------------------|
D|--6----6----8----8----5----5---------------6----6---------------------------------|
A|-------------------------------3----3---------------------------------------------|
E|-4----4----6----6----3----3--------------4----4----6----6-------------------------|

Inst.:
G|-------8-7-----------------------------------5--3-5-----8--8-------------------------------------|
D|-----6-----8--------------6-----5--5-3-5---------------------8-10----8---6--6-8-----5--5-3-5-----|
A|4--6---------8----------6------------------3--------3-6-----------10---------------------------1-|
E|---------------6--4-4-4-----3-3----------3-----------------------------4--------4-3----------3---|

G|-8--8-----------------------------------------------------3-5---3-----|
D|-----8-10----8---6--6-8-----5--5-3-5-------------------------5--------|
A|----------10---------------------------1-3-3--1-3--3-3-3---------1-3--|
E|---------------4--------4-3----------3--------------------------------|


Bridge:

G|-----------------------5----5----8----8---------------------------5----5-----6----8--|
D|--6----6----5----5---------------------------6----6----5----5------------------------|
A|----------------------3----3----6----6---------------------------3----3-----4----6---|
E|-4----4----3----3---------------------------4----4----3----3-------------------------|

G|---------------------------------5----5---------------------------5----5-----5----5--|
D|--6----6----8----8----5----5-----------------6----6----5----5------------------------|
A|--------------------------------3----3---------------------------3----3-----3----3---|
E|-4----4----6----6----3----3-----------------4----4----3----3-------------------------|

G|------6-----------------5-------------------6----------5--3-5-----------------------1-|
D|----6-----------------5------3---------------------------------3---3--3--3--2--1--1---|
A|-4--------4-6------3-------3-------4---4--4----4-3--3--------3------------------------|
E|--------------------------------------------------------------------------------------|

G|---------------------------------5----5-------------------------------------------------|
D|--6----6----8----8----5----5----------------------------------6-8-------------5---------|
A|--------------------------------3----3-------------------------------2--2--5------------|
E|-4----4----6----6----3----3--------------4--4--4-4--4---4---4------3-------------3------|


Chorus:

G|-------------------------------------------------7----7-------------------------7----7----8----10----|
D|---------7---------8----8----10----10----7----7-------------8----8----7----7-------------------------|
A|----3--6----------------------------------------5----5-------------------------5----5----4----8------|
E|-4---------5--5---6----6----8-----8-----5----5-------------6----6----5----5--------------------------|

G|---------------------------------7----7------------------------------------------|
D|--8----8----10----10----7----7------------8----8----8----8----7----7----7----7---|
A|-------------------------------5----5--------------------------------------------|
E|-6----6----8----8----5----5-------------6----6----6----6----5----5----5----5-----|

G|---------------------------------7----7-----------------------7----7----8----10--|
D|--8----8----10----10----7----7------------8----8----7----7-----------------------|
A|-------------------------------5----5------------------------5----5----6----8----|
E|-6----6----8----8----5----5-------------6----6----5----5-------------------------|

G|-------------------------------------------------------------------------------------|
D|--8----8----10---10---11---11---12---12-------8--------------10-12----10-------------|
A|-------------------------------------------------------------------12----------------|
E|-6----6----8----8----9----9----10---10-----6-----6-6-6--8--8-------------8-8---------|

G|------10--------------10-----------------------------------------------10-------------8---10---|
D|---------10----------------------------------------10-12----10------------10-------------------|
A|-8--8-------8------8------8--8---------------------------12-------8--8-------8------6---8------|
E|--------------8-8----------------6--6--6-6-6--8--8-------------8---------------8-8-------------|

G|-----------------------------|
D|----8-10-5-7-----------------|
A|-----------------------------|
E|-6-----------6--8--8---------|


Outro:

G|---------------------------------7----7-----------------------7----7----8----10--|
D|--8----8----10----10----7----7------------8----8----7----7-----------------------|
A|-------------------------------5----5------------------------5----5----6----8----|
E|-6----6----8----8----5----5-------------6----6----5----5-------------------------|

G|-------------------------------------------------------------------------------------|
D|--8----8----10---10---11---11---12---12----8----8----7----7--------------------------|
A|----------------------------------------------------------------5----5----5----------|
E|-6----6----8----8----9----9----10---10----6----6----5----5---------------------------|

Almost there ...

Sign in to get your own page with links to favourite songs and more. You are just one click away...

Login with Facebook Login with Google