Log in

One click and you are in

Login with Facebook Login with Google

Why sign up and log in

Guitar Tabs Explorer
Dwight Yoakam bass tabs for Guitar s  cadillac s

Guitar S Cadillac S bass tab by Dwight Yoakam

Dwight Yoakam bass tabs for Guitar s  cadillac s

Bass tabs

Tabbed By : mrclavet
e-mail: mrclavet@gmail.com

Standard Tuning


Tuning:

G|----------------------------------------6-------6-------6-------6----------|
D|--------4-------4-------4-------4---6-8-----6-8-----6-8-----6-8------------|
A|----4-7-----4-7-----4-7-----4-7---7-------7-------7-------7----------------|
E|--5-------5-------5-------5------------------------------------------------|
      	  {Basic Structure of whole song}

G|---------------------------------------------------------6-----------------|
D|--------------4----------------------------4---------6-8-------------------|
A|----------4-7--...and so on------------4-7---------7-----------------------|
E|-0-2-3--5----------------------------5-------5-3-2-------------------------|
 {little fill from chorus to chorus}	{fills at end}

G|------------------------6--------------------------------------------------|
D|--------4-------4---6-8---7------------------------------------------------|
A|----4-7-----4-7---7--------------------------------------------------------|
E|--5-------5----------------------------------------------------------------|
  {final tune}

Almost there ...

Sign in to get your own page with links to favourite songs and more. You are just one click away...

Login with Facebook Login with Google