Search tabs and chords

Browse bands and artists

A B C D E F G H I J K L M N O P Q R S T U V W X Y Z #

Log in

[ Register here | Forgot password ]

Guitar Tabs Explorer
Print

A Long Way Home chords by Dwight Yoakam

Guitar chords with lyrics

A Long Way Home is the ninth studio album of new recordings by Dwight Yoakam. It reached No. 11 on the Billboard Country Album, with two of its tracks charting on the Hot Country Singles chart. `Things Change` reached No. 17, while `These Arms` peaked at No. 57. Yo ... More

Flyinglibra51Author: Flyinglibra51

  • Tuning: Standard
  • Difficulty: Novice
A Long Way Home
Dwight Yoakam

Intro
           Bm7       D             Em                   G  A                 D
E--------------------2-------------0--------------------3--0 ----------------3-
B--------------------3-------------0--------------------0--2-----------------2-
G--------------------2-------------0--------------------0--2-----------------3-
D-----0-3s-4-0-----0-3-----0-4-2---2------0-3s-4-2------0--2-----0-4-3-0-----0-
A-0-2----------2-0-----0-2-------2-2--0-2----------h2---2--0-0-2---------2-0-0-
E----------------------------------0------------------3-3--x-----------------x-

Bm7          D
Don`t look inside
(A note)   Em
Don`t look there
               G    A7              D
`Cause you may find    Yourself somewhere
                           Em
A Walkin` `round  lost and alone
            G    A
Without one clue
                    D
But it`s a long way home

          Bm7       D             Em                   G  A                 D
E--------------------2-------------0--------------------3--0 ----------------3-
B--------------------3-------------0--------------------0--2-----------------2-
G--------------------2-------------0--------------------0--2-----------------3-
D-----0-3s-4-0-----0-3-----0-4-2---2------0-3s-4-2------0--2-----0-4-3-0-----0-
A-0-2----------2-0-----0-2-------2-2--0-2----------h2---2--0-0-2---------2-0-0-
E----------------------------------0------------------3-3--x-----------------x-

Bm7       D
Years and years
(A note)    Em
Is a lot of time
             G             A              D
To drag your heart across  Every rock you find

Hate is deep
                 Em
And it`s pull is strong
                  G     A
But the passion`s short
                     D
Then it`s a long way home

       Em                G               D
Oh and I can`t take  One single step for you
      Em                 G                       A
But I might just help To find some small pathway through

          Bm7       D             Em                   G  A                 D
E--------------------2-------------0--------------------3--0 ----------------3-
B--------------------3-------------0--------------------0--2-----------------2-
G--------------------2-------------0--------------------0--2-----------------3-
D-----0-3s-4-0-----0-3-----0-4-2---2------0-3s-4-2------0--2-----0-4-3-0-----0-
A-0-2----------2-0-----0-2-------2-2--0-2----------h2---2--0-0-2---------2-0-0-
E----------------------------------0------------------3-3--x-----------------x-

Bm7        D
Don`t look back
                 Em
`Cause you might see
         G      A
Just how far... All that you used to be

Let your mind
                Em
Think on what`s gone
            G      A                       D
Then you`ll know...   That it`s a long way home
            G       A
Yeah you`ll know....
                     D
That it`s a long way home
            G     A
You`ll find out
                      D
That it`s a long  way home
               Em     A
There ain`t no doubt
                     G      D
That it`s a long way home.......

          Bm7       D
E--------------------2-
B--------------------3-
G--------------------2-
D-----0-3s-4-0-----0-3-
A-0-2----------2-0---0--
E--------------------x--

Other versions of A Long Way Home

A long way homeTabs
A long way home acousticTabs

Comments

A Long Way Home chords

A Long Way Home is the ninth studio album of new recordings by Dwight Yoakam. It reached No. 11 on the Billboard Country Album, with two of its tracks charting on the Hot Country Singles chart. `Things Change` reached No. 17, while `These Arms` peaked at No. 57. Yoakam wrote all the songs on the album himself.