Log in

One click and you are in

Login with Facebook Login with Google

Why sign up and log in

Guitar Tabs Explorer
Yiruma chords for Rivers flow in you ukulele

Guitar chords

Tuning: G C E A (G C E A)


Intro:

 F#m               F#m
A|-0----0----0--0----0-----------|-0----0----0--0----0-----------|
E|-2---4----4---0--0----------0--|-2---4----4---0--0----------0--|
C|-1------------2--------2--1----|-1------------2--------2--1----|
G|-2-----2------2------2---------|-2-----2------2------2---------|

Part 1:

 F#m                  E
A|-0----0----0--0----0------------------2------------------------|
E|-2---4----4---0--0----------------0---0-0----------------------|
C|-1------------2--------2----0h1-2---1--------------------------|
G|-2-----2------2------2------2---------1--1---------------------|

Part 2:

    F#m
A|--0---0---------0-2-4------4-5-7-----5-4-2---------------------|
E|----4-2----2--0-----2--2-------5---5-----0-0-------------------|
C|------1--1----------2-2--------4-4-----------------------------|
G|------2-------------2--------------------1--1------------------|


Repeat Part 1: and Part 2: two timnes


Part 3:

     F#m              A
A|-0-2-0---0------0-2-0---0------0-2-0---0---2-4-5-7-4-2-0--------|
E|-------4-2--2---------4-0--0---------4-0-----------------4---0--|
C|---------1-1-1----------2-2-2----------1-----------------4--4-4-|
G|---------2--------------2--------------2------------------------|


************************************

| h Hammer-on

************************************

ⓘ Guitar chords for 'Rivers Flow In You Ukulele' by Yiruma, Lee Ru-ma, a male acoustic artist. Yiruma was born in 1978. Yiruma is known for his in love music.

Almost there ...

Sign in to get your own page with links to favourite songs and more. You are just one click away...

Login with Facebook Login with Google