Log in

One click and you are in

Login with Facebook Login with Google

Why sign up and log in

Guitar Tabs Explorer
Yiruma chords for River flows in you ukulele

Guitar chords

Tuning: G C E A (G C E A)

A|-0---0---0---0-------|-----------0---|-0---0---0---0---|-----------0---|-0---0-0---0-0---0-0---0-|
E|-----------0---------|---------------|-----------0-----|---------------|---------------0---------|
C|---------------2-----|-------------1-|---------------2-|-------------1-|---------------------2---|
G|---1---1-------------|---------------|---1---1---------|---------------|---1-----1---------------|

A|---------2-------0---|-0------0-2------------|---------------2-------|-0---0-0---0-0---0-0---0-|
E|-----0---------------|------0----------------|-0---------------------|---------------0---------|
C|-1-2---1-------------|------------1------1-2-|-----------2-1---------|---------------------2---|
G|-------------------1-|-----------------------|-----------------------|---1-----1---------------|

A|-------4-----4---0---|-0-------0-2-----0-----|-----------2---0-2-0---|-0-0---0-0-2-0---0-0---0-0-2-0---|
E|-----0-----0-------4-|---------------0-------|-0-0-------------------|-----0---------------0-----------|
C|-1-2-----------------|-------------1-----1-2-|-----1-2-1-----------1-|---------------------------------|
G|---------4-----4-----|-----------------------|-----------------------|---------------1---------------1-|

A|-0-2-4-5-7-----------0---0---|-0-0---0-0-2-0---0-0---0-0-2-0---|-0-2-4-5-7-----------0---0-2-0---|
E|-------------7-5-4---------4-|-----0---------------0-----------|-------------7-5-4---------------|
C|-----------------------------|---------------------------------|---------------------------------|
G|-----------6-------4---4-----|---------------1---------------1-|-----------6-------4-----------1-|

A|-0-0---0-0---2-0---0-0---0-0---2-0---|-0-2-4-5-7-----------0---0---|-0-0--0-0-2-0---0-0---0-0-2-0---|
E|-----0-----------------0-------------|-------------7-5-4---------4-|----0---------------0-----------|
C|-------------------------------------|-----------------------------|--------------------------------|
G|-----------------1-----------------1-|-----------6-------4---4-----|--------------1---------------1-|

A|-0-2-4-5-7---------------|-----------0---|-0---0-0---0-0---0-0---0-|---------2---------0---|
E|-------------7-5-4---4---|---------------|---------------0---------|-----0-----------------|
C|-----------------------4-|-------------1-|---------------------2---|-1-2---1---------------|
G|-----------6-------4-----|---------------|---1-----1---------------|---------------------1-|

A|-0--------0-2-----0-2---------|-----------------2-------2---|-0---0-0---0-0---0-0---0-|
E|--------0-------0-------0-----|-0-0-----0-0-------0---------|---------------0---------|
C|--------------1-------1---1-2-|-----1-2-----2-1-----2-1-----|---------------------2---|
G|------------------------------|---------------------------1-|---1-----1---------------|

A|-------4-----4---0---|-0------0-2-----0-2---------|-----------------2-----2-0-2-0---|
E|-----0-----0-------4-|--------------0-------0-----|-0-0-----0-0-------0-------------|
C|-1-2-----------------|------------1-------1---1-2-|-----1-2-----2-1-----1-----------|
G|---------4-----4-----|----------------------------|-------------------------------1-|

A|-0-0---0-0---0-2-0---0-0---0-0---0-2-0---|-0-2-4-5-7---------------0---0-2-0---|
E|-----0-------------------0---------------|-------------7-5-4-------------------|
C|-----------------------------------------|---------------------4---------------|
G|-------------------1-------------------1-|-----------6-------4---4-----------1-|

A|-0-0---0-0---0-2-0---0-0---0-0-2-0---|-0-2-4-5-7---------------0---0-2-0---|
E|-----0-------------------0-----------|-------------7-5-4-------------------|
C|-------------------------------------|---------------------4---------------|
G|-------------------1---------------1-|-----------6-------4---4-----------1-|

A|-0-0---0-0---0-2-0---0-0---0-0---0-2-0---|-0-2-4-5-7-------------0---0-2-0---|
E|-----0-------------------0---------------|-------------7-5-4-----------------|
C|-----------------------------------------|-----------------------------------|
G|-------------------1-------------------1-|-----------6-------4-------------1-|

A|-0-0---0-0---0-2-0---0-0---0-0---0-2-0---|-0-2-4-5-7------------|-------------------|
E|-----0-------------------0---------------|-------------7-5-4----|-5-4-5-4-5---5-----|
C|-----------------------------------------|----------------------|-----------4---2---|
G|-------------------1-------------------1-|-----------6----------|-------------------|

A|---------2-0---|-0-----0-2-----0-----|-----------2---0---|-0---0---0---0---|-------4-----0---|
E|-----0---------|-----0-------0-------|-0-0---------------|-----------0-----|-----0---------4-|
C|-1-2---1-------|-1---------1-----1-2-|-----1-2-1-------1-|---------------2-|-1-2-------------|
G|-------------1-|---------------------|-------------------|---1---1---------|---------4-------|

A|-0------0-2------------|------------2------|-0----------|
E|-----------------------|-0-----------------|------------|
C|------------1------1-2-|--------2-1--------|------------|
G|-----------------------|-------------------|------------|

ⓘ Guitar chords for 'River Flows In You Ukulele' by Yiruma, Lee Ru-ma, a male acoustic artist. Yiruma was born in 1978. Yiruma is known for his in love music.

Almost there ...

Sign in to get your own page with links to favourite songs and more. You are just one click away...

Login with Facebook Login with Google