Log in

One click and you are in

Login with Facebook Login with Google

Why sign up and log in

Guitar Tabs Explorer
Yiruma guitar tabs for Kiss the rain

Guitar tabs

Tabbed by: ARHmaniac


Tuning: Standard

If you want to be in the same key as Yiruma, you should put a capo on the first fret.
MAIN VERSE
e|---------|---------------------------|--------------------0-2-|
A chord diagramBB|---------|----0--0-----------------0-|----3--3----------3-----|
A chord diagramG+G|----0--2-|-2-----------2-------0-2---|-2-----------2----------|
A chord diagramD MajorD|-0-------|----------0-----0----------|----------0-------------|
A chord diagramA augmentedA|---------|---------------------------|-2----------------------|
A chord diagramE MajorE|---------|-3-----------------3-------|------------------------|


-2--3--3--------5--7-5-3--|-2-------------3--2----|----0--0-----------------|
----------0--3------------|----0--3--0----------3-|-3-----------0-------3-1-|
--------------------------|-----------------------|----------2-----2--------|
-2------------------------|-----------------------|-------------------------|
--------------------------|-2---------------------|-3-----------------------|
--------------------------|-----------------------|-------------------------|


----------------------|
-1--3--3--------------|
-0-----------0----0-2-|
----------0-----------|
-3--------------------|
----------------------|


FIRST ENDING
-------------------------|-------------------|
-0--1--1------------3--1-|-0--------0--------|
-0-----------0-----------|-0-----0-----2-----| back to main verse
----------2-----2--------|-0--0--------0-----|
-0-----------------------|-------------------|
-------------------------|-------------------|

SECOND ENDING
-----------------------|-----------------|
-0--1------------------|-----------------|
-0-----0-----0---------|-0-----------0---| go to chorus
----------2-------2----|----0-----0------|
-0---------------------|-------2---------|
-----------------------|-3---------------|


CHORUS
---------|-0------------------0-|-----------------------|
----0--3-|-------3--------------|-3--------3----------3-|
-0-------|----0-----0------0----|-------0----------0----|
---------|--------------4-------|----0----------4-------|
---------|-3--------------------|-2---------------------|
---------|----------------------|-----------------------|


-----------------------------------|-0-------------2--2--0-|
-3--1-1-0-0-------------------0--3-|-------3---------------|
-0----------2-2-0-2/4-4----0-------|----0-----0------------|
-----------------------------------|-----------------------|
-3---------------------------------|-3---------------------|
-----------------------------------|-----------------------|


----------------------|-------0--2-3--7--------7--5---|
-3--------0-1-3---1-0-|-1--3----------------0---------|
-------0--------------|-0----------------0------------| Back to main verse.
----0-----------------|---------------0-----------0---|
-2--------------------|-3-----------------------------|

Other versions of Kiss The Rain

Kiss the rainChords
Kiss the rainTabs
Kiss the rain0Tabs

Almost there ...

Sign in to get your own page with links to favourite songs and more. You are just one click away...

Login with Facebook Login with Google