Log in

One click and you are in

Login with Facebook Login with Google

Why sign up and log in

Guitar Tabs Explorer
Yes bass tabs for Long distance runaround

Bass tabs

Long Distance Runaround
                   Yes
                           Transcribed by Justin Benz


  Guitar & Keyboard    0:12
|---------------------||----------------------------|---------------------------
|---------------------||*---------------------------|----------------7--8-------
|---------------------||*---------------8--7--8--7--|--10--9--10--9-------------
|---------------------||----8--7--8--7--------------|---------------------------

-----||--------------------------|-------------------||-------------------------
10--*||--------------------------|-------------------||*------------------------
----*||--------------8--7--8--7--|--10---------------||*--------------8--7------
-----||--8--7--8--7--------------|------5--7--8--10--||---8--7--8--7------------


------|---------------------------||--------------------------|-----------------
------|----------------7--8--10--*||--------------------------|-----------------
8--7--|--10--9--10--9------------*||--------------8--7--8--7--|--10-------------
------|---------------------------||--8--7--8--7--------------|------5--7--8----


                           0:41
|------------14--12--11h12p11--|------------11--9--7---||----------------|------
|-------7h9--------------------|-------7h9-------------||*-------7h9-----|------
|--7h9-------------------------|--7h9------------------||*--7h9-------7--|------
|------------------------------|-----------------------||----------------|------


-----------||--||--------------||---------------|----------|--------------|-----
-----7h9--*||--||*-------7h9--*||-------7h9--5--|-------5--|-------5h7----|-----
7h9-------*||--||*--7h9-------*||--7h9----------|--5h7-----|--5h7---------|-----
-----------||--||--------------||---------------|----------|------------5/|-----

1:06
-------------------------|--------------------|-------------|-------------------
-------------------------|--------------------|---------/8--|--8--7--5----------
-------------------------|--------------------|-----3-------|-----------8--6----
-8--8--8--8--7--7--7--5--|--5--3--3--3--1--1--|--0----------|-------------------


      1:18
---------|---||----------------|-------------||--||--------------||-------------
---------|---||*-------7h9-----|-------7h9--*||--||*-------7h9--*||-------7-----
5--------|---||*--7h9-------7--|--7h9-------*||--||*--7h9-------*||--7h9--------
---8--6--|---||----------------|-------------||--||--------------||-------------


-------|----------|--------------|--------------------------|-------------------
h9--5--|-------5--|-------5h7----|--------------------------|-------------------
-------|--5h7-----|--5h7---------|--------------------------|-------------------
-------|----------|------------5/|--8--8--8--8--7--7--7--5--|--5--3--3--3--1----


                        1:54
---|-------------|--------------------------|---||----------------|-------------
---|---------/8--|--8--7--5-----------------|---||*-------7h9-----|-------7-----
---|-----3-------|-----------8--6--5--------|---||*--7h9-------7--|--7h9--------
1--|--0----------|--------------------8--6--|---||----------------|-------------


-----||--------------||--------------||---------------|----------|--------------
h9--*||-------7h9----||*-------7h9--*||-------7h9--5--|-------5--|-------5------
----*||--7h9---------||*--7h9-------*||--7h9----------|--5h7-----|--5h7---------
-----||------------7\||--------------||---------------|----------|--------------


     2:18
------||----------------------------|---------------------------||--------------
h7----||*---------------------------|----------------7--8--10--*||--------------
------||*---------------8--7--8--7--|--10--9--10--9------------*||--------------
----3/||----8--7--8--7--------------|---------------------------||--8--7--8-----


---------------|-------------------||---------------------------|---------------
---------------|-------------------||*--------------------------|---------------
---8--7--8--7--|--10---------------||*--------------8--7--8--7--|--10--9--10----
7--------------|------5--7--8--10--||---8--7--8--7--------------|---------------


                             2:42
--------------||--------------------------|----------------||-------------------
---7--8--10--*||--------------------------|----------------||*-------7h9--------
9------------*||--------------8--7--8--7--|--10------------||*--7h9-------7-----
--------------||--8--7--8--7--------------|------5--7--8---||-------------------


|-------------||--------------||--------------||---------------|----------|-----
|-------7h9--*||-------7h9----||*-------7h9--*||-------7h9--5--|-------5--|-----
|--7h9-------*||--7h9---------||*--7h9-------*||--7h9----------|--5h7-----|-----
|-------------||------------7\||--------------||---------------|----------|-----


------------|--------------------------|--------------------|-------------|-----
-----5h7----|--------------------------|--------------------|---------/8--|-----
5h7---------|--------------------------|--------------------|-----3-------|-----
----------5/|--8--8--8--8--7--7--7--5--|--5--3--3--3--1--1--|--0----------|-----


------------------------|-----------------------|-------------------------------
8--7--5-----------------|-----------------------|-------------------------------
---------8--6--5--------|-----------------------|--------------6--6--7/19-------
------------------8--6--|--6--6--6--6--6--6--6--|--7--7--9--9-------------------


Segue into "The Fish"     Harmonics
||------------------------|---------------12-----------7--||--------------------
||------------------------|-----------12------------7-----||--------------------
||------------------------|-------12-------------7--------||--------------------
||------------------------|---12--------------7-----------||--------------------




==      Created with a shareware version of the BUCKET 'O TAB      ==
==              For more information:              ==
==             email: gse@ocsystems.com             ==
==   US Mail: The Bucket, 3176-B5 Summit Square Dr., Oakton, VA 22124   ==

Almost there ...

Sign in to get your own page with links to favourite songs and more. You are just one click away...

Login with Facebook Login with Google