Log in

One click and you are in

Login with Facebook Login with Google

Why sign up and log in

Guitar Tabs Explorer
Yellowman bass tabs for Mr chin

Bass tabs

Album:     Mister Yellowman
Tabbed by: James 'Mach-woN' Alexander IV
           (machwon@machwon.com)
 
Comments:
Me and my friends call this "The Universal
Reggae Bassline" simply because this bassline
is in countless other songs and by other artists
ass well. I tabbed this cuz no one else would
and it was fun figuring it out.
 
OK, let's get down to brass taxes gentlemen!
 
------------------------------------------------
 
Normal (E,A,D,G) Tuning.
 
MAIN BASSLINE
 
G|---7-7-7-7-7-7--------|
D|-5--------------------| 
A|-----------------7-7-5| x16
E|----------------------|
 

Chorus
 
G|---7-7-7-7-7-7--------|
D|-5--------------------| 
A|-----------------7-7-5| x1
E|----------------------|
 

G|--------------------|
D|-7-7-7-7-7-7-7------|
A|---------------5-5-5| x3
E|--------------------|
 
G|--------------------|
D|-5-5-5-5-5-5-5------|
A|-----------------7-7| x2
E|--------------------|
 
Then back to main bassline.
 
Keep this pattern up and thats the whole song.
And remember, be polite, say 'No, thank you!' to drugs!

Almost there ...

Sign in to get your own page with links to favourite songs and more. You are just one click away...

Login with Facebook Login with Google