Log in

One click and you are in

Login with Facebook Login with Google

Why sign up and log in

Guitar Tabs Explorer
Yellowcard bass tabs for Ocean avenue

Bass tabs

Pretty simple but still a good song


intro
G|-------------||
D|-------------||
A|-------------||
D|-0--0-0-0000-||
verse
G|------------|------------|------------|------------||
D|------------|------------|------------|------------||
A|------------|------------|------------|------------||
D|-2--2--2--2-|-4--4--4444-|-0--0--0--0-|-0--0--0000-||
(play to here on half).....^


chorus
G|----------|-----------|----------|----------||
D|----------|-----------|----------|----------||
A|----------|-------5/0-|----------|----------||
D|-22222222-|-444444----|-00000000-|-00000000-||

fill a      fill b
G|----------||  G|---------|----------||
D|----------||  D|---------|----------||
A|----------||  A|-0-0-0-0-|-0-0-0000-||
D|-00000000-||  D|---------|----------||


bridge(on 2nd and 3rd time play with the pattern of the verse but
let all of the notes ring)
G|------------------|------------------|------------------|...
D|------------------|------------------|------------------|...
A|-0000000000000000-|------------------|------------------|...cont.
D|------------------|-4444444444444444-|-2222222266667777-|...

bridge (cont)
...G|------------------||
...D|------------------||
...A|------------------||
...D|-0000000000000000-||


ending
G|------------||
D|------------||
A|------------||
D|-7--6--2--0-||


play the song in this order
---------------------------

intro x 1

verse x 7 1/2
fill a x 1

chorus x 3

verse x 5 1/2
fill a x 1

chorus x 4
fill b x 2

bridge x 3

chorus x 4

verse x 1 1/2

ending x 1
ⓘ Bass guitar tab for 'Ocean Avenue' by Yellowcard, a pop-punk band formed in 1997 from Jacksonville, Florida, USA. Yellowcard is known for their excitable rock/pop music.

Almost there ...

Sign in to get your own page with links to favourite songs and more. You are just one click away...

Login with Facebook Login with Google