Log in

One click and you are in

Login with Facebook Login with Google

Why sign up and log in

Guitar Tabs Explorer
Years Years bass tabs for King

Bass tabs

-------------------------------------------------------------------------------
               KING - Years & Years
-------------------------------------------------------------------------------


Album: Communion
Year: 2015
Tuning: EADG


Intro - 00.07 - 00.15

G|---------------------------------------------------------------------------|
D|-----------------7-7-7-7-7-7-7-7-------------------------------------------|
A|-2-2-2-2-2-2-2-2-----------------7-7-7-7-7-7-7-7-5-5-5-5-5-5-5-5-----------|
E|---------------------------------------------------------------------------|


Verse - 00.15 - 00.47

G|---------------------------------------------------------------------------|
D|---------------------------------------------------------------------------|
A|-2---2---2--------------7---7---7---5---5---5------------------------------|
E|-------------5---5---5-----------------------------------------------------| x8


Chorus - 00.48 - 01.03

G|---------------------------------------------------------------------------|
D|---------------------------------------------------------------------------|
A|-2-2-2-2-2-2-2-2-----------------7-7-7-7-7-7-7-7-5-5-5-5-5-5-5-5-----------|
E|-----------------5-5-5-5-5-5-5-5-------------------------------------------| x2

Intro Again - 01.03 - 01.20

G|---------------------------------------------------------------------------|
D|-----------------7-7-7-7-7-7-7-7-------------------------------------------|
A|-2-2-2-2-2-2-2-2-----------------7-7-7-7-7-7-7-7-5-5-5-5-5-5-5-5-----------|
E|---------------------------------------------------------------------------| x2


Verse 2 - 01.20 - 01.51

G|---------------------------------------------------------------------------|
D|---------------------------------------------------------------------------|
A|-2---2---2--------------7---7---7---5---5---5------------------------------|
E|-------------5---5---5-----------------------------------------------------| x8


Chorus - 01.51 - 02.08

G|---------------------------------------------------------------------------|
D|---------------------------------------------------------------------------|
A|-2-2-2-2-2-2-2-2-----------------7-7-7-7-7-7-7-7-5-5-5-5-5-5-5-5-----------|
E|-----------------5-5-5-5-5-5-5-5-------------------------------------------| x2

Rest for Bridge - 02.08 - 02.32


Intro Again - 02.32 - 02.48

G|---------------------------------------------------------------------------|
D|-----------------7-7-7-7-7-7-7-7-------------------------------------------|
A|-2-2-2-2-2-2-2-2-----------------7-7-7-7-7-7-7-7-5-5-5-5-5-5-5-5-----------|
E|---------------------------------------------------------------------------| x2


Chorus - 02.48 - 03.04

G|---------------------------------------------------------------------------|
D|---------------------------------------------------------------------------|
A|-2-2-2-2-2-2-2-2-----------------7-7-7-7-7-7-7-7-5-5-5-5-5-5-5-5-----------|
E|-----------------5-5-5-5-5-5-5-5-------------------------------------------| x2


Intro Again - 03.04 - End

G|---------------------------------------------------------------------------|
D|-----------------7-7-7-7-7-7-7-7-------------------------------------------|
A|-2-2-2-2-2-2-2-2-----------------7-7-7-7-7-7-7-7-5-5-5-5-5-5-5-5-----------|
E|---------------------------------------------------------------------------| x4

Thank you! :)

| / slide up
| \ slide down
| h hammer-on
| p pull-off
| ~ vibrato
| + harmonic
| x Mute note

Almost there ...

Sign in to get your own page with links to favourite songs and more. You are just one click away...

Login with Facebook Login with Google