Search tabs and chords

Search for song, artist or band

Log in

One click and you are in

Login with Facebook Login with Google

Why sign up and log in

Guitar Tabs Explorer
Years Around The Sun guitar tabs for Miles away acoustic

Guitar tabs

Intro + Verse:
e|-----------------------------------------------------------------------------------------------------------|
B|-----------------------------------------------------------------------------------------------------------|
G|-------7------5---------------------7------5---------------------------------------------------------------|
D|---0------0------0---8--8---0---0------0------0---8--8---0------10--10---10--10---10--10---10---------8--8-|
A|-----------------------------------------------------------8--8--------8--------8--------8-----10--10------|
E|-6---6------6------6------6---6---6------6------6------6---------------------------------------------------|

e|----------------------|
B|----------------------|
G|----------------------|
D|----8--8----8--8----8-|
A|-10------10------10---|
E|----------------------|

Pre-Chorus:
e|------------------------------------------------------------------|
B|-----------------------------------------------------------------O|
G|------------------------------------------------------------------|
D|------8--8-----------10--10-----------8--8----8--8----8--8----8---|
A|-6--6------6/8--8--8--------8--10--10------10------10------10----O|
E|------------------------------------------------------------------|

Chorus:
(Guitar 1)
e|---------------------------------------------------------------------|
B|--------------------------------------------------------------------O|
G|---------------------------------------------------------------------|
D|---8---8--8--------10---10--10-------8----8--8----8--8----8--8----8--|
A|-6---6------6/8--8----8--------8--10---10------10------10------10---O|
E|---------------------------------------------------------------------|

(Guitar 2)
e|-----------------------------------------------------------------------------------------------------------|
B|-----------------------------------------------------------------------------------------------------------|
G|---3---3--3------5---5--5------7---7--7---7--7---7----3---5--3------3---5--3------3---3---3---3---3---3---3|
D|-5---5------5--5---5------5--5---5------5------5----5---5------5--3---3------3--3---3---3---3---3---3---3--|
A|-----------------------------------------------------------------------------------------------------------|
E|-----------------------------------------------------------------------------------------------------------|

Instrumental 1:
e|----------------------------------|-----------------------------------------------------------------|
B|------------6----8------6--6---6-O|-----------8------10---------8-----------------------------------|
G|--------7-7---7-----7--------7----|-----------------------10-------10-------------8--8----8--8----8-|
D|-5/8-8----------8-----8-----------|-8/10---10---10-----------10-------8\7-8/10-10------10------10---|
A|---------------------------------O|------8---------8------------------------------------------------|
E|----------------------------------|-----------------------------------------------------------------|

Verse:
e|-----------------------------------------------------------------------------------------------------------|
B|-----------------------------------------------------------------------------------------------------------|
G|-------7------5---------------------7------5---------------------------------------------------------------|
D|---0------0------0---8--8---0---0------0------0---8--8---0------10--10---10--10---10--10---10---------8--8-|
A|-----------------------------------------------------------8--8--------8--------8--------8-----10--10------|
E|-6---6------6------6------6---6---6------6------6------6---------------------------------------------------|

e|----------------------|
B|----------------------|
G|----------------------|
D|----8--8----8--8----8-|
A|-10------10------10---|
E|----------------------|

Pre-Chorus:
e|------------------------------------------------------------------|
B|-----------------------------------------------------------------O|
G|------------------------------------------------------------------|
D|------8--8-----------10--10-----------8--8----8--8----8--8----8---|
A|-6--6------6/8--8--8--------8--10--10------10------10------10----O|
E|------------------------------------------------------------------|

Chorus:
(Guitar 1)
e|---------------------------------------------------------------------|
B|--------------------------------------------------------------------O|
G|---------------------------------------------------------------------|
D|---8---8--8--------10---10--10-------8----8--8----8--8----8--8----8--|
A|-6---6------6/8--8----8--------8--10---10------10------10------10---O|
E|---------------------------------------------------------------------|

(Guitar 2)
e|-----------------------------------------------------------------------------------------------------------|
B|-----------------------------------------------------------------------------------------------------------|
G|---3---3--3------5---5--5------7---7--7---7--7---7----3---5--3------3---5--3------3---3---3---3---3---3---3|
D|-5---5------5--5---5------5--5---5------5------5----5---5------5--3---3------3--3---3---3---3---3---3---3--|
A|-----------------------------------------------------------------------------------------------------------|
E|-----------------------------------------------------------------------------------------------------------|

Instrumental 1:
e|----------------------------------|-----------------------------------------------------------------|
B|------------6----8------6--6---6-O|-----------8------10---------8-----------------------------------|
G|--------7-7---7-----7--------7----|-----------------------10-------10-------------8--8----8--8----8-|
D|-5/8-8----------8-----8-----------|-8/10---10---10-----------10-------8\7-8/10-10------10------10---|
A|---------------------------------O|------8---------8------------------------------------------------|
E|----------------------------------|-----------------------------------------------------------------|

Instrumental 2:
e|---------------------------------------------------------6--------8-------8-------8-------8-------|
B|------------6-----8-----6--6---6-------------6-----8--------8---6---6---6---6---6---6---6---6---6-|
G|--------7-7---7-----7--------7-----------7-7---7-----7--------7-------7-------7-------7-------7---|
D|-5/8-8----------8-----8-----------5/8-8----------8-----8------------------------------------------|
A|--------------------------------------------------------------------------------------------------|
E|--------------------------------------------------------------------------------------------------|

e|-6-------6-------6-------6------------------------------------------------------------5---6--6-5-3-1--3--|
B|---8---8---8---8---8---8---8---8-----------6-----8------6--6---6---------6-----8-------------------------|
G|-----7-------7-------7-------7---------7-7---7------7--------7-------7-7---7------7----------------------|
D|---------------------------------5/8-8---------8------8----------8-8---------8------8--------------------|
A|---------------------------------------------------------------------------------------------------------|
E|---------------------------------------------------------------------------------------------------------|

e|-1----------1-----3/6--|
B|----3--1------3--------|
G|---------3------3------|
D|-----------------------|
A|-----------------------|
E|-----------------------|

Chorus:
(Guitar 1)
e|---------------------------------------------------------------------|
B|--------------------------------------------------------------------O|
G|---------------------------------------------------------------------|
D|---8---8--8--------10---10--10-------8----8--8----8--8----8--8----8--|
A|-6---6------6/8--8----8--------8--10---10------10------10------10---O|
E|---------------------------------------------------------------------|

(Guitar 2)
e|-----------------------------------------------------------------------------------------------------------|
B|-----------------------------------------------------------------------------------------------------------|
G|---3---3--3------5---5--5------7---7--7---7--7---7----3---5--3------3---5--3------3---3---3---3---3---3---3|
D|-5---5------5--5---5------5--5---5------5------5----5---5------5--3---3------3--3---3---3---3---3---3---3--|
A|-----------------------------------------------------------------------------------------------------------|
E|-----------------------------------------------------------------------------------------------------------|

Other versions of Miles Away Acoustic

Miles awayChords

Almost there ...

Sign in to get your own page with links to favourite songs and more. You are just one click away...

Login with Facebook Login with Google