Log in

One click and you are in

Login with Facebook Login with Google

Why sign up and log in

Guitar Tabs Explorer
Yazoo bass tabs for Nobodys diary

Bass tabs

🎸 Intro: (Keyboards Only – No Bass)

🎸 Verse 1:
 If I wait for just a second more I know I’ll forget what I came here
G|--------------------------------------------------|
D|--------------------------------------------------|
A|--------------------------------------------------|
E|--------------------------------------------------|

 For My head was so full of things to say But as I open my lips all
G|--------------------------------------------------|
D|--------------------------------------------------|
A|--------------------------------------------------|
E|--------------------------------------------------|

 My words slip away        and away
G|-------------------------------------------------------------------|
D|-------------------------------------------------------------------|
A|---------------7--7--7--7---5--5-5---5--5-5--5---------------------|
E|------------------------------------------------5--5-5---5--5-5--5-|

🎸 Verse 2:
G|--------------------------------------------------------------|
D|--------------------------------------------------------------|
A|---------5--5-5-------------------------------5--5-5---7--7-7-|
E|-7--7-7----------5--5-5---5--5-5--5---7--7-7------------------|

G|------------------------------------------------------------------------|
D|------------------------------------------------------------------------|
A|-7--7-7--7-------------------------------------------5--5-5---5--5-5--5-|
E|------------5--5-5---5--5-5--5---7--7-7---7--7-7--7---------------------|

G|----------------------------------------------------------|
D|----------------------------------------------------------|
A|-7--7-7---6--6-6---5--5-5---5--5-5--5---------------------|
E|---------------------------------------5--5-5---5--5-5--5-|

🎸 Chorus:
G|-----------------------------------------------------------------|
D|-----------------------------------------------------------------|
A|----------5--5-5---------------------------------5--5-5----------|
E|-7--7-7------------5--5-5---5--5-5--5---7--7-7------------5--5-5-|

G|-------------------------------------------------------------------|
D|-------------------------------------------------------------------|
A|------------------------------7--7-7---7--7-7---5--5-5---5--5-5--5-|
E|-5--5-5--5---7--7-7---7--7-7---------------------------------------|

G|--------------------|
D---------------------|
A|--------------------|
E|-5--5-5---5--5-5--5-|

Keyboard 🎸 Solo:
G|-----------------------------------------------------------------|
D|-----------------------------------------------------------------|
A|----------5--5-5---------------------------------5--5-5---7--7-7-|
E|-7--7-7------------5--5-5---5--5-5--5---7--7-7-------------------|

G|---------------------------------------------------------------------|
D|---------------------------------------------------------------------|
A|-7--7-7-------------------------------------5--5-5---5--5-5---7--7-7-|
E|---------5--5-5---5--5-5---7--7-7---7--7-7---------------------------|

G|-------------------------------------------------|
D|-------------------------------------------------|
A|-6--6-6---5--5-5---5--5-5--5---------------------|
E|------------------------------5--5-5---5--5-5--5-|

🎸 Verse 3:
G|--------------------------------------------------------------|
D|--------------------------------------------------------------|
A|---------5--5-5-------------------------------5--5-5---7--7-7-|
E|-7--7-7----------5--5-5---5--5-5--5---7--7-7------------------|

G|------------------------------------------------------------------------|
D|------------------------------------------------------------------------|
A|-7--7-7--7-------------------------------------------5--5-5---5--5-5--5-|
E|------------5--5-5---5--5-5--5---7--7-7---7--7-7--7---------------------|

G|----------------------------------------------------------|
D|----------------------------------------------------------|
A|-7--7-7---6--6-6---5--5-5---5--5-5--5---------------------|
E|---------------------------------------5--5-5---5--5-5--5-|

🎸 Chorus:
G|-----------------------------------------------------------------|
D|-----------------------------------------------------------------|
A|----------5--5-5---------------------------------5--5-5----------|
E|-7--7-7------------5--5-5---5--5-5--5---7--7-7------------5--5-5-|

G|----------------------------------------------------------------------|
D|----------------------------------------------------------------------|
A|---------------------------------7--7-7---6--6-6---5--5-5---5--5-5--5-|
E|-5--5-5--5---7--7-7---7--7-7--7---------------------------------------|

G|--------------------|
D---------------------|
A|--------------------|
E|-5--5-5---5--5-5--5-|

🎸 Outro:
G|-----------------------------------------------------------------|
D|-----------------------------------------------------------------|
A|----------5--5-5---------------------------------5--5-5----------|
E|-7--7-7------------5--5-5---5--5-5--5---7--7-7------------5--5-5-|

G|----------------------------------------------------------------------|
D|----------------------------------------------------------------------|
A|---------------------------------7--7-7---6--6-6---5--5-5---5--5-5--5-|
E|-5--5-5--5---7--7-7---7--7-7--7---------------------------------------|

           (Bass Ends Here Keyboard Only To Fade)
G|--------------------|
D---------------------|
A|--------------------|
E|-5--5-5---5--5-5--5-|

Almost there ...

Sign in to get your own page with links to favourite songs and more. You are just one click away...

Login with Facebook Login with Google