Log in

One click and you are in

Login with Facebook Login with Google

Why sign up and log in

Guitar Tabs Explorer
The Yardbirds bass tabs for Chris number

Bass tabs

THE YARDBIRDS - CHRIS' NUMBER
ALBUM: HAVING A RAVE UP (1966)
BASSIT: PAUL SAMWELL-SMITH


INTRO/BRIDGE

E -----------------------------------------------------------|
A ---------------------------------------------5-5-5-5---3---|
D -5-5-5-5---5-5-5-5---------5-5-5-5-------------------------|
G -------------------5-5-5-5----------7-7-7-7----------------|
VERSE

E --------------------------------------------------------------|
A ---------5-5------------5-5------------5-5------------5-5-----|
D --5-5--5-----3-4-5-5--5-----3-4-5-5--5-----3-4-5-5--5-----3-4-|
G --------------------------------------------------------------|

E ---------------------------------------------------------------|
A ----------------------------------------5-5------------5-5-----|
D ---------5-5------------5-5------5-5--5-----3-4-5-5--5-----3-4-|
G --5-5--5-----3-4-5-5--5-----3-4--------------------------------|

E ----------5-5-----5-5--5---------------------------------------|
A --------------3-5--------3-3--5-5-----------5-5--------3*------|
D -------------------------------------5-5--5-----3-4-5----------|
G --7-7--7-------------------------------------------------------|


BRIDGE

E -----------------------------------------------------------|
A ---------------------------------------------5-5-5-5---3---|
D -5-5-5-5---5-5-5-5---------5-5-5-5-------------------------|
G -------------------5-5-5-5----------7-7-7-7----------------|

AND THEN BACK TO THE VERSE...

Almost there ...

Sign in to get your own page with links to favourite songs and more. You are just one click away...

Login with Facebook Login with Google