Log in

One click and you are in

Login with Facebook Login with Google

Why sign up and log in

Guitar Tabs Explorer
Yard Act bass tabs for Dark days

Bass tabs

Verse 1: bass starts on 0:08

G|-----------------------------------------|
D|------5----------5---------5---------5---|
A|---3----3-----3----3----3----3----3----3-|
E|-5----------5---------5---------5--------|

(small pause, bass comes back in at 0:24)
G|----------------------------------------------------------------------------|
D|-----------5---------5---------5----------5---------5---------5---------5---|
A|---3----3----3----3----3----3----3-----3----3----3----3----3----3----3----3-|
E|-5----5---------5---------5----------5---------5---------5---------5--------|


Chorus:

G|-----------------------------------------------------------------------|
D|-----------------------------------------------------------------------|
A|--------------3----------------3-2---------------3-----------------2-3-|
E|-5--5-5--5--0---0--5--5-5-5--0------5--5-5--5--0---0--5--5-5--5--0-----|

G|-----------------------------------------------------------|
D|-----------------------------------------------------------|
A|-5--5-5--5--0-3--5--5-5--5--0---------------3--------------|
E|-------------------------------5--5-5--5--0---0--5--5-5--5-|


Verse 2:

G|----------------------------------------------------------------------|
D|------5---------5---------5---------5---------5---------5---------5---|
A|---3----3----3----3----3----3----3----3----3----3----3----3----3----3-|
E|-5---------5---------5---------5---------5---------5---------5--------|


Chorus 2:

G|-----------------------------------------------------------------------|
D|-----------------------------------------------------------------------|
A|--------------3----------------3-2---------------3-----------------2-3-|
E|-5--5-5--5--0---0--5--5-5-5--0------5--5-5--5--0---0--5--5-5--5--0-----|

G|-----------------------------------------------------------|
D|-----------------------------------------------------------|
A|-5--5-5--5--0-3--5--5-5--5--0---------------3--------------|
E|-------------------------------5--5-5--5--0---0--5--5-5--5-|

G|-----------------------------------------------------------------------|
D|-----------------------------------------------------------------------|
A|--------------3----------------3-2---------------3-----------------2-3-|
E|-5--5-5--5--0---0--5--5-5-5--0------5--5-5--5--0---0--5--5-5--5--0-----|

G|-----------------------------------------------------------|
D|-----------------------------------------------------------|
A|-5--5-5--5--0-3--5--5-5--5--0---------------3--------------|
E|-------------------------------5--5-5--5--0---0--5--5-5--5-|


Bridge:

G|----------------------------------------------------------|
D|-------------7---5------------------7---5-----------------|
A|----------------------------------------------------------|
E|-5-5-5-5-5-5---5---5--5-5-5-5-5-5-5---5---5-5-5-5-5-5-5-5-|

G|-------------7---5-------------------------------------------|
D|-----------------------------------------7---5---------------|
A|-5-5-5-5-5-5---5---5-5-5-5-5---------------------------------|
E|-----------------------------5-5-5-5-5-5---5---5-5-5-5-5-5-5-|

G|------------------------------------------------------------------|
D|------------------------------------------------------------------|
A|-------------3-2-------------3-2-------------3-2--------------2-3-|
E|-5--5-5--5-0-----5--5-5--5-0-----5--5-5--5-0------5--5-5--5-0-----|

G|------------------------------------------------------------|
D|------------------------------------------------------------|
A|-5--5-5--5--0--3--5--5-5--5--0---------------3--------------|
E|--------------------------------5--5-5--5--0---0--5--5-5--5-|

G|------------------------------------------------------------------|
D|------------------------------------------------------------------|
A|-------------3-2-------------3-2-------------3-2--------------2-3-|
E|-5--5-5--5-0-----5--5-5--5-0-----5--5-5--5-0------5--5-5--5-0-----|

G|------------------------------------------------------------|
D|------------------------------------------------------------|
A|-5--5-5--5--0--3--5--5-5--5--0---------------3--------------|
E|--------------------------------5--5-5--5--0---0--5--5-5--5-|


Outro:

G|------------------------------------------------------------------|
D|------------------------------------------------------------------|
A|-------------3-2-------------3-2-------------3-2--------------2-3-|
E|-5--5-5--5-0-----5--5-5--5-0-----5--5-5--5-0------5--5-5--5-0-----|

G|------------------------------------------------------------|
D|------------------------------------------------------------|
A|-5--5-5--5--0--3--5--5-5--5--0---------------3--------------|
E|--------------------------------5--5-5--5--0---0--5--5-5--5-|
ⓘ Bass guitar tab for 'Dark Days' by Yard Act, an indie band formed in 2021 from English

Almost there ...

Sign in to get your own page with links to favourite songs and more. You are just one click away...

Login with Facebook Login with Google