Log in

One click and you are in

Login with Facebook Login with Google

Why sign up and log in

Guitar Tabs Explorer
Yano guitar tabs for Tsinelas

Guitar tabs

:Tsinelas Tab:

 Intro: (A-D) (4x)

 e|---x----------x-x-----------------------------|
 b|---x----------x-x-----------------------------|
 g|---x----------7-7-----------------------------| (4x)
 d|---7----------7-7-----------------------------|
 a|---7-(16x)----5-5-----------------------------|
 e|---5----------x-x-----------------------------|

 Chorus: (A-D) (7x)
 ..Mang Kulas..
 e|---x-x-x-x-x----x-x-x-x-x---------------------|
 b|---x-x-x-x-x----x-x-x-x-x---------------------|
 g|---x-x-x-x-x----7-7-7-7-7---------------------| (7x)
 d|---7-7-7-7-7----7-7-7-7-7---------------------|
 a|---7-7-7-7-7----5-5-5-5-5---------------------|
 e|---5-5-5-5-5----x-x-x-x-x---------------------|

 Verse: (A-G-A) (2x)

 e|---x----------x-x-x-x-x----x-x-x-x-x----------|      |---x-----------|
 b|---x----------x-x-x-x-x----x-x-x-x-x----------|      |---x-----------|
 g|---x----------x-x-x-x-x----x-x-x-x-x----------| (2x) |---x-----------|
 d|---7----------5-5-5-5-5----7-7-7-7-7----------|      |---7-----------|
 a|---7-(10x)----5-5-5-5-5----7-7-7-7-7----------|      |---7-(10x)-----|
 e|---5----------3-3-3-3-3----5-5-5-5-5----------|      |---5-----------|

 Chorus
 Verse
 Chorus
 Verse
 Chorus
 Adlib: (Do Intro)
 Verse

 Chorus: (A-D) (10x)

 e|---x-x-x-x-x----x-x-x-x-x---------------------|
 b|---x-x-x-x-x----x-x-x-x-x---------------------|
 g|---x-x-x-x-x----7-7-7-7-7---------------------| (10x)
 d|---7-7-7-7-7----7-7-7-7-7---------------------|
 a|---7-7-7-7-7----5-5-5-5-5---------------------|
 e|---5-5-5-5-5----x-x-x-x-x---------------------|

 post na lang kaung comment...
 frienster users.....add nyo ko...j_lipio@yahoo.com
 pm nyo ko kung mganda....

Other versions of Tsinelas

TsinelasChords

Almost there ...

Sign in to get your own page with links to favourite songs and more. You are just one click away...

Login with Facebook Login with Google