Log in

One click and you are in

Login with Facebook Login with Google

Why sign up and log in

Guitar Tabs Explorer
Yano guitar tabs for Paalam sampaguita

Guitar tabs

Yano - Paalam Sampaguita

G|------------------------------------14-------|
D|---10-12----10-12----12/14141414-12----12h14-| Intro
A|12-------12-------12-------------------------| 4x
E|---------------------------------------------|

G|-------------|----------|
D|----14---12--|----------| Hit all notes 8 times
A|-12----9-----|---7---5--| Chorus
E|-------------|-5---2----|

G|--------------------------------------|
D|----7x7x-76-76x--76-6~----------------|
A|-----------5-------5---979~-75-4h5p4~-| Riff I
E|-2~-----------------------------------|

G|------------------------------------|
D|------------------------------------| Verse II
A|--555---5-444---4-222---2-555-------| 2x
E|-----555-5---555-5---222-2---55555--|

G|--------------------------------------|
D|----7x7x-76-76x--76-6~----------------|
A|-----------5-------5---979~-75-4h5p4~-| Riff I
E|-2~-----------------------------------|

G|------------------------------------|
D|------------------------------------| Verse II
A|--555---5-444---4-222---2-555-------| 2x
E|-----555-5---555-5---222-2---55555--|

G|--------------------------------------------|
D|-----11-11-----------------------11h12p11---|
A|-9-9-------9/7-7-----7/5(9)/10h12--------12-| Riff II
E|-----------------7-7------------------------|

G|----------|----------|
D|----------|----------| Hit all notes 8 times
A|---7---5--|---7---5--| Chorus
E|-5---2----|-5---2----|

G|--------------------------------------|
D|----7x7x-76-76x--76-6~----------------|
A|-----------5-------5---979~-75-4h5p4~-| Riff I
E|-2~-----------------------------------|

G|------------------------------------|
D|------------------------------------| Verse II
A|--555---5-444---4-222---2-555-------| 2x
E|-----555-5---555-5---222-2---55555--|

G|--------------------------------------|
D|--6h7x7x-76-76x--76-6~----------------|
A|-----------5-------5---979~-75-4h5p4~-| Riff I
E|-2~-----------------------------------|

G|------------------------------------|
D|------------------------------------| Verse II
A|--555---5-444---4-222---2-555-------| 2x
E|-----555-5---555-5---222-2---55555--|

G|--------------------------------------------|
D|-----11-11-----------------------11h12p11---|
A|-9-9-------9/7-7-----7/5(9)/10h12--------12-| Riff II
E|-----------------7-7------------------------|

G|----------|----------|
D|----------|----------| Hit all notes 8 times
A|---7---5--|---7---5--| Chorus
E|-5---2----|-5---2----|

G|------------------------------------14-------|
D|---10-12----10-12----12/14141414-12----12h14-|
A|12-------12-------12-------------------------| 4x
E|---------------------------------------------|

G|----------|
D|----------| Hit all notes 8 times
A|---7---5--| Chorus 12x
E|-5---2----|

G|----------|
D|----------| Hit all notes 8 times
A|---7---5--| Chorus 12x
E|-5---2----|

G|-----------------------|
D|------14(8)----12-11---|
A|-12(8)-----9(5)--------| OR
E|--------------------10-|

G|----------|----------|
D|----------|----------| Hit all notes 8 times
A|---7---5--|---7---5--| Chorus
E|-5---2----|-5---2----|


p.s. Di pa to tapos.
I ddouble check ko pa bukas. Binigay ko palang yung idea ng kanta.
I'll edit it soon as possible.
Enjoy.Macombo

Add me:
lance2796@yahoo.com

Other versions of Paalam Sampaguita

Paalam sampaguitaChords
Paalam sampaguita ukuleleChords

Almost there ...

Sign in to get your own page with links to favourite songs and more. You are just one click away...

Login with Facebook Login with Google