Log in

One click and you are in

Login with Facebook Login with Google

Why sign up and log in

Guitar Tabs Explorer
Yano guitar tabs for Esem

Guitar tabs with lyrics

ESEM BY YANO


Tuning: standard
INTRO: chords: D-A-Bm-G

    A chord diagramD MajorD                 A chord diagramA majorA           Bm-
E:--10----------------10--------------------------------|
B:-----10-7b8-7-/8/10-----10-7b8-7----------------------|
G:---------------------------------7~-------------------|
D:------------------------------------------------------|
A:------------------------------------------------------|
E:------------------------------------------------------|

   -Bm                     G-
E:---------------------------------|
B:-------------------------10b12^~-|
G:----7-9b11p9--9b11p9-------------|
D:--9------------------9-----------|
A:---------------------------------|
E:---------------------------------|

   -G                            D-
E:------------------------------------------------------|
B:--12p10-------12p10-----------------------------------|
G:--------12p11-------11b12p11--------------------------|
D:-----------------------------12~----------------------|
A:------------------------------------------------------|
E:------------------------------------------------------|

   -D                            A chord diagramA majorA                                  A chord diagramB minorBm
E:------------------------------------------------------------------------|
B:------------------------------------------------------------------------|
G:------------------------------------------------------------------------|
D:----12-14b16^~---14b16-12--12-h14-----12-14b16^~---14b16-12--12h14------|
A:--14---------------------14---------14---------------------14-----14----|
E:------------------------------------------------------------------------|

   -Bm                        A chord diagramG MajorG                                      A chord diagramD MajorD
E:----------------------------------------------------------------------|
B:----------------------------------------------------12p10-------------|
G:-----------------12p11------14b16^~-14b16^(14)p12p11-----11b12(11)----|
D:-------12-----14--------------------------------------------------12~-|
A:--12-12--12-12--------14----------------------------------------------|
E:----------------------------------------------------------------------|


VERSE: chords: D-A-Bm-G

  patingin-tingin             di naman makabili

E:--------------------------------------------------------------------|
B:------------------------------------------------(7)-----------------|
G:-----------------9b11^-7-9~---------------------9b11^-7h9-----------|
D:----------------------------------------------------------9~--------|
A:--------------------------------------------------------------------|
E:--------------------------------------------------------------------|

  patingin-tingin                     di makapanood ng sine

E:-----------------------------------------------------------------------------------|
B:-----------------------------------------------------------------12----------------|
G:--------------------7-9b11^(9)-7~--------------------------7-9/11-----9b11^--------|
D:------------------9---------------------------------------9------------------------|
A:-----------------------------------------------------------------------------------|
E:-----------------------------------------------------------------------------------|

  walang ibang pera             kundi pamasahe

E:------------------------------------------------------------------|
B:---------------------------------------------(7)------------------|
G:-----------------11b12-9~--------------------9b11^-7h9------------|
D:-------------------------------------------------------9~---------|
A:------------------------------------------------------------------|
E:------------------------------------------------------------------|

  nakayanan ko lang                  pambili ng dalawang yosi.

E:------------------------------------------------------------------------|
B:---------------------------------------------------------------------10-|
G:--------------------7-9b11^(9)-7~-----------------------------7-9/11----|
D:------------------9-----------------------------------------9-----------|
A:------------------------------------------------------------------------|
E:------------------------------------------------------------------------|


INTRO:

E:--10-----------------10--------------|
B:----10--7b8-7-/8/10----10--7b8-7-----|
G:---------------------------------7~--|
D:-------------------------------------|
A:-------------------------------------|
E:-------------------------------------|


E:-------------------------------------------------------|
B:-------------------------------------------------------|
G:----7-9b11^----11p9--7h9-7~--------7---9b11^(9)-7h9-7--|
D:--9--------------------------9-7-9---------------------|
A:-------------------------------------------------------|
E:-------------------------------------------------------|


VERSE:

  paamoy-amoy,                 di naman makakain

E:------------------------------------------------------------------|
B:------------------------------------------------------------------|
G:---------------7h9~----------------------------9b11(9)-7h9-7~-----|
D:------------------------------------------------------------------|
A:------------------------------------------------------------------|
E:------------------------------------------------------------------|

  busog na sa tubig,                 gutom ay lilipas din

E:----------------------------------------------------------------------------|
B:----------------------------------------------------------10b12^(10)-8-10~--|
G:-------------------9b11(9)---7~---------------------------------------------|
D:---------------------------9------------------------------------------------|
A:----------------------------------------------------------------------------|
E:----------------------------------------------------------------------------|

 patuloy ang pag laboy,                  walang iisipin

E:-------------------10-10(10)-10/12~-------------------12p10-----------------|
B:------------------------------------------------------------12p10-10-12~----|
G:----------------------------------------------------------------------------|
D:----------------------------------------------------------------------------|
A:----------------------------------------------------------------------------|
E:----------------------------------------------------------------------------|

 kailangan magsaya,                     kailangang magpahangin.

E:------------------------------------------------------------------|
B:------------------------------------------------------------------|
G:-----------------9h11--7h9--7~------------------------------------|
D:------------------------------------------------------------------|
A:------------------------------------------------------------------|
E:------------------------------------------------------------------|


CHORUS: A-G 4x

GUITAR SOLO: D-A-Bm-G

    A chord diagramD MajorD                  A chord diagramA majorA                  A chord diagramB minorBm
E:--10-----------------10-----------------10------------------------|
B:----10--7b8-7-/8/10----10--7b8-7-/8/10----10--7b8--10b12^-8-------|
G:------------------------------------------------------------------|
D:------------------------------------------------------------------|
A:------------------------------------------------------------------|
E:------------------------------------------------------------------|

    A chord diagramG MajorG                                                       D-
E:---(7)----------------------10------------------------------------|
B:--10b12^--12-10----------------12p10-------12p10------------------|
G:----------------11-11b12(11)---------11b12-------11b12(11)--------|
D:----------------------------------------------------------12~-----|
A:------------------------------------------------------------------|
E:------------------------------------------------------------------|

   -D                    A chord diagramA majorA                   A chord diagramB minorBm                         A chord diagramG MajorG
E:-------------------------------------------------------------------------|
B:-(3)---------------------------------------7h8p7~7b8(7)------------------|
G:--6b7------------------------------7---7h9------------------9p7-9-7h9p7~-|
D:-------------------7-----------7h9---9-----------------------------------|
A:-----------5---5h7---7-7/9~----------------------------------------------|
E:-------5h7---7-----------------------------------------------------------|

                              A chord diagramD MajorD
E:----------------------10--10h12~--|
B:-------------10--10h12--12--------|
G:--------11h12--12-----------------|
D:--12h14---------------------------|
A:----------------------------------|
E:----------------------------------|


CHORUS:


VERSE:

 gumagabi na,                       ako'y uuwi na

E:------------------------------------------------------------------|
B:------------------------------------------------------------------|
G:-----------9b11(9)-7-9~-------------------------9b11(9)-9/11------|
D:-------------------------------------------------------------9~---|
A:------------------------------------------------------------------|
E:------------------------------------------------------------------|

 tapos na ang saya,                balik sa problema

E:-----------------------------------------------------------------------|
B:-------------------------------------------------10---------10---------|
G:-----------------9/11---------------------7-9/11----11p9-11----9b11^~--|
D:----------------------9-----------------#------------------------------|
A:-----------------------------------------------------------------------|
E:-----------------------------------------------------------------------|

 at bukas ng umaga,                 uulitin ko pa ba

E:------------------------------------------------------------------|
B:------------------------------------------------------------------|
G:-----------------11b12-9~--------------------------9b11^-7h9-7~---|
D:------------------------------------------------------------------|
A:------------------------------------------------------------------|
E:------------------------------------------------------------------|

 ang kahibangang ito,                    sa tingin ko hindi na.

E:------------------------------------------------------------------|
B:---------------------------10------------------------------10-----|
G:------------------7h9-9h11----11p9-7~---------------9-9b11--------|
D:----------9p7-7-9-------------------------------------------------|
A:------------------------------------------------------------------|
E:------------------------------------------------------------------|


CHORUS:

    A chord diagramA majorA            A chord diagramG MajorG
E:-------------------|
B:-------------------|
G:--9~---9b11^-9-7~--| x8
D:-------------------|
A:-------------------|
E:-------------------|


    A chord diagramD MajorD                 A chord diagramA majorA           Bm-
E:--10----------------10--------------------------------|
B:-----10-7b8-7-/8/10-----10-7b8-7----------------------|
G:---------------------------------7~-------------------|
D:------------------------------------------------------|
A:------------------------------------------------------|
E:------------------------------------------------------|

   -Bm                     G-
E:---------------------------------|
B:-------------------------10b12^~-|
G:----7-9b11p9--9b11p9-------------|
D:--9------------------9-----------|
A:---------------------------------|
E:---------------------------------|

   -G                                D-
E:------------------------------------------------------|
B:--12-10-------------12p10-----------------------------|
G:--------11-11b12(11)------11b12p11--------------------|
D:-----------------------------------12~----------------|
A:------------------------------------------------------|
E:------------------------------------------------------|

   -D                          A chord diagramA majorA                                   A chord diagramB minorBm
E:------------------------------------------------------------------------|
B:------------------------------------------------------------------------|
G:------------------------------------------------------------------------|
D:----12-14b16^~---14b16-12--12h14------12-14b16^~---14b16-12--12h14------|
A:--14---------------------14---------14---------------------14------14---|
E:------------------------------------------------------------------------|

    A chord diagramD MajorD
E:----------------------14~-|
B:----------------------15~-|
G:--------------14------14~-|
D:-----12-14/16----12~------|
A:--14----------------------|
E:--------------------------|

END ^^

pa add nalang po sa friendster ace_14206@yahoo.com.ph
paki rate narin po ty..

Other versions of Esem

EsemChords

Almost there ...

Sign in to get your own page with links to favourite songs and more. You are just one click away...

Login with Facebook Login with Google