Log in

One click and you are in

Login with Facebook Login with Google

Why sign up and log in

Guitar Tabs Explorer
Yano bass tabs for Esem

Bass tabs

Ito yung INTRO pakinggan nio na lang un timing
100% ACCURATE
 D     A    Bm    G
e----------------------------------------------------------------------------|
B----------------------------------------------------------------------------|
G----------------------------------------------------------------------------|
D----------------------------------------------------------------------------|
A--5--5--5-------------------------------------------------------------------|
E-----------5--5--5--7--7--7--3--3--3----------------------------------------|

  D         A         Bm        G
e----------------------------------------------------------------------------|
B----------------------------------------------------------------------------|
G----------------------------------------------------------------------------|
D-----7--5--4--5--7----------------------------------------------------------|
A--5--------------------7--5--4--5--7-----9--7--6--7--9--10--9--10--9--10--9-|
E--------------------5-----------------7-------------------------------------|

_____________________________________________________________________________


Ito ung bass sa bawat verse paulit-ulit lang


 D         A         Bm        G
e----------------------------------------------------------------------------|
B----------------------------------------------------------------------------|
G----------------------------------------------------------------------------|
D-----7--5--4--5--7----------------------------------------------------------|
A--5--------------------7--5--4--5--7-----9--7--6--7--9--10--9--10--9--10--9-|
E--------------------5-----------------7-------------------------------------|



Ito naman ung sa chorus
paulit-ulit lang din

  A       G
e-------------------------------------------|
B-------------------------------------------|
G-----------4/6-----------2/4---------------|
D--------7-------------5--------------------|
A-----7-------------5-----------------------|
E--5-------------3--------------------------|


Paki-rate nmn mga tropa comment kau kung ndi kau kuntento!!!!
thnk you!!!!!!!!!
TAAS mga Vampira!!!!!!
tuloy ang liga!!!! hahaha!!!!
masher yosi tau!!!!

Almost there ...

Sign in to get your own page with links to favourite songs and more. You are just one click away...

Login with Facebook Login with Google