Log in

One click and you are in

Login with Facebook Login with Google

Why sign up and log in

Guitar Tabs Explorer
Yano guitar tabs for Banal na aso santong kabayo

Guitar tabs

Tuning:
(EBGDAE)


Intro:
   A chord diagramE minorEm                   A chord diagramC majorC
A chord diagramE MajorE|-------------------|----0----------------|
A chord diagramBB|----0---3-------0--|------3--------------|
A chord diagramG+G|------2-------2----|--------0---------0--|
A chord diagramD MajorD|------------2------|------------2--0-----|
A chord diagramA augmentedA|-------------------|--3------------------|
A chord diagramE MajorE|--0----------------|---------------------|
Verse 1:
The same lang s intro pero my Rythm sya
Em-C


Chorus:
Guitar 1
e--------------------------------------|
b--------------------------------------|
g--2-0-----4-0-2-0-4-0-2h3p2--2-0------|
d------2-0------------------------2-0--|
a--------------------------------------|
E--------------------------------------|

e--------------------------------------|
b--------------------------------------|
g--2-0-----4-0-2-0-4-0-2h3p2--2-0------|
d------2-0------------------------2-0--|
a--------------------------------------|
E--------------------------------------|

e---------------------------------------|
b---------------------------------------|
g---2-0-----4-0-2-0-4-0-2-3-2--2-0------|
d-------2-0------------------------2-0--|
a---------------------------------------|
E---------------------------------------|

e---------------------------------------|
b---------------------------------------|
g--2-0-----4-0-2-0-4-0-2h3p2--2-0-------|
d------2-0------------------------2-0---|
a---------------------------------------|
E---------------------------------------|

Guitar 2 (rythm) ung chords ang gmitin nyo s intro'

(REPEAT)

This is the 1st Solo:
Guitar 1:
e--15-12-14-12--------15-12-14-12-------15-12-14-12--|
b--------------15-12--------------15-12--------------|
g----------------------------------------------------|
d----------------------------------------------------|
a----------------------------------------------------|
E----------------------------------------------------|

e--------15----12----14------12----12----14--|
b--15-12----13----13------------13----13-----|
g--------------------------------------------|
d--------------------------------------------|
a--------------------------------------------|
E--------------------------------------------|

e--15-12-14-12--------15-12-14-12-------15-12-14-12--|
b--------------15-12--------------15-12--------------|
g----------------------------------------------------|
d----------------------------------------------------|
a----------------------------------------------------|
E----------------------------------------------------|

e----------15----12----14------12----------14\----|
b----15-12----13----13------------13-12-13--------|
g-------------------------------------------------|
d-------------------------------------------------|
a-------------------------------------------------|
E-------------------------------------------------|

Verse 2:
Pareho lng s Verse 1 ang pattern


Chorus:Stram lang ninyo ung chords

2nd Solo:
Guitar 1
e--------------------------------------------------8---|
b------------------------------5-----7-----8---8-7-----|
g--4---4b----2---2----2--4--5-----5-----5--------------|
d------------------------------------------------------|
a------------------------------------------------------|
E------------------------------------------------------|

e-----------------------------------|
b-----8p7----7p5----4h5-------------|
g---------8------5------4--5--4-----|
d-----------------------------------|
a-----------------------------------|
E-----------------------------------|

e-------------------------------------------------------|
b-------5--4--7b----7--5--4--7-------10b------10b-------|
g--5--4-------------------------------------------------|
d-------------------------------------------------------|
a-------------------------------------------------------|
E-------------------------------------------------------|

e-------------------------------------------------------|
b-----8-10-8---8-------------------10-12-10-------------|
g------------9---9\-----7-9-7--/11----------------------|
d--------------------/9---------------------------------|
a-------------------------------------------------------|
E-------------------------------------------------------|


e--------10----10b--10b----7h10p7------7h8p7------7----------------|
b--10h12----12---------------------11---------11-----11--10--8--7--|
g------------------------------------------------------------------|
d------------------------------------------------------------------|
a------------------------------------------------------------------|
E------------------------------------------------------------------|

e------------------------------------------------------------------|
b-----7\-------7---7\-------7---7\-------7-------7\----------------|
g------------------------------------------------------------------|
d------------------------------------------------------------------|
a------------------------------------------------------------------|
E------------------------------------------------------------------|

Guitar 2: (Rythm)

comment is free ok'
axl_since1969@yahoo.com

Almost there ...

Sign in to get your own page with links to favourite songs and more. You are just one click away...

Login with Facebook Login with Google