Log in

One click and you are in

Login with Facebook Login with Google

Why sign up and log in

Guitar Tabs Explorer
Yano bass tabs for Banal na aso santong kabayo

Banal Na Aso Santong Kabayo bass tab by Yano

Yano bass tabs for Banal na aso santong kabayo

Bass tabs

key:
/-slide
h-hammer
x-dead note
intro:
G|-----------------------------------|
D|-----------------------------------|
A|7--53--2----53--57--53--2---53--2--|
E|--------30---------------30------30|


verse:
G|---------------------------------|
D|---------------------------------|
A|53--3h57--53--2----53--2----53/14|
E|---------------30-------30-------|


chorus:
G|--------------------------------------------------------------|
D|--------------------------------------------------------------|
A|7-x77-53-x33----77-53-x33-2----77-53-x33-2----7x7-53-x3x3-2---|
E|-------------0-0-----------30-0-----------30-0-------------30-|

adlib:
G|----------------------------------------|
D|----------------------------------------|
A|9/10-9-7-5-3-2-3----9/10-9-7-5-3-2-3---7|
E|-----------------37------------------3--|


verse 2:
G|--------------------------------------------------------|
D|------54------------54----------------------------------|
A|53-3-3--7-x77-53-2-3--7-7-53-x33-3h57-x77-53-2-0--------|
E|-------------------------------------------------3-5-3-0|

chorus2:
G|----------------------------------------------------------------|
D|----------------------------------------------------------------|
A|x77-53-x3x3-2----7x7-53-x3x3-2----7x7-53-2-3-2----7x7-53-2-3----|
E|-------------30-0-------------30-0------------30-0-----------3-0|

lead:
G|-----------------------------------------------------------------|
D|---------54------------5-----------54------------54----------54--|
A|7-753-2-3--7-x77-53-2-3--7-7--3-2-3--7-x77-53-3-3--7-7-53-3-3--7-|
E|-----------------------------------------------------------------|

-----------------------------------------|
----------54------------54------------54-|
x77-53-2-3--7-x77-53-2-3--7-x77-53-2-3--7|
-----------------------------------------|

(ano man ang yong ginagawa)
G|---------------------------------------------------------|
D|---------------------------------------------------------|
A|53-2-3-2---5/7-53-2-3-2---5/7-53-2/3-2-2---5/7-53-2-3-2--|
E|--------30-------------30---------------30-------------30|


chorus3:
G|----------------------------------------------------------------------|
D|----------------------------------------------------------------------|
A|x7x7-53-x3x3-2---x7x7-53-2-3-2---x7x7-53-x3x3-2---x7x7-53-2323-2-3-2--|
E|--------------30--------------30---------------30-------------------30|


outro:
G|---------------------------------------------|
D|---------------------------------------------|
A|9/10-9-7-5-3-2-3-2/7--9/10-9-7-5-3-2---------|
E|------------------------------------3-2-3-2-0|

-end-

i think this is pretty much right..ENJOY!!

Almost there ...

Sign in to get your own page with links to favourite songs and more. You are just one click away...

Login with Facebook Login with Google