Log in

One click and you are in

Login with Facebook Login with Google

Why sign up and log in

Guitar Tabs Explorer
Tiersen Yann guitar tabs for Comptine d un autre ete

Guitar tabs

Yann Tiersen - Comptine d'un autre ete
tabbed by ghbert

A chord diagramE minorEm		A chord diagramG+G		 A chord diagramB minorBm	              A chord diagramD MajorD
-0--------0------------------------------------------------------------------------------------------------------------
---0---0----0--0--3---------3---------3---------3--------3---------3-----------------------------------------------
-----0--------0-------4---4----4---4-----4---4----4---4----2---2----2----2---------------------------------------
-2--------2--------0----5----0---5----0---4-----0---4---0----4----0---4------------------------------------------
------------------------------------------------------------------------------------------------------------------------
------------------------------------------------------------------------------------------------------------------------

------------------------------------------------------------------------------------------------------------------------
------------------------------------------------------------------------------------------------------------------------
----------454--------------------------454---------------------------------------------------------------------------
----545-----------454--575----424----------424-------------------------------------------------------------------
------------------------------------------------------------------------------------------------------------------------
------------------------------------------------------------------------------------------------------------------------

--0----------------2-----2----------3--0------3--------2--------2---------------------------------------------------
------0---3---0------0-------------.0--0-----.0--3----.0--3--------3-----------------------------------------------
------------------------------2--------------------.0--------------2---------------------------------------------------
--------------------------------------------------------------4--------4-----------------------------------------------
------------------------------------------------------------------------------------------------------------------------
------------------------------------------------------------------------------------------------------------------------

----------------------------------------------------5------5------5------5---------------------------------------------
------12------12-----12------12----------------------------------------------------------7------7------7------7----
----9-------9-------9-------9-------9-----9----7------7------7------7------7----7----4------4------4------4-------
--9-------9-------9-------9-------9---10----9------9------9------9------9----7----4------4------4------4---------
------------------------------------------------------------------------------------------------------------------------
------------------------------------------------------------------------------------------------------------------------

------------------------------------------------------------------------------------------------------------------------
--------------10-----10-----10-----10--------------------------------------------------------------------------------
---4---4---7------7-------7------7-------7---7-----------------------------------------------------------------------
-4---5---7------7-------7------7-------7---5-------------------------------------------------------------------------
------------------------------------------------------------------------------------------------------------------------
------------------------------------------------------------------------------------------------------------------------

------787----------------------787----------------------12--------10------14------14------------------------------
-878--------787-8108---757--------757-------------------12-------12-------12------10--------------------------
------------------------------------------------------------------------------------------------------------------------
------------------------------------------------------------------------------------------------------------------------
------------------------------------------------------------------------------------------------------------------------
------------------------------------------------------------------------------------------------------------------------

--15--12------15-----------14---------14----------------------------------------------------------------------------
--12--12------12--15------.12--15--------15------------------------------------------------------------------------
--------------------.12------------------14---------------------------------------------------------------------------
-----------------------------------16--------16-----------------------------------------------------------------------
------------------------------------------------------------------------------------------------------------------------
------------------------------------------------------------------------------------------------------------------------

--------19---------19-------19-------19------------------------19--------19--------19--------19-------------------
----17---------17--------17-------17--------17-----17-----15--------15--------15--------15--------15-----15----
-16--------16---------16-------16-------16-----17-----16--------16--------16--------16--------16-----14--------
------------------------------------------------------------------------------------------------------------------------
------------------------------------------------------------------------------------------------------------------------
------------------------------------------------------------------------------------------------------------------------

---------14---------14---------14---------14---------------------17--------17-------17--------17------------------
-----12---------12---------12---------12---------12----12----15--------15--------15-------15--------15-----15-
-11---------11---------11---------11---------11-----12----14--------14--------14--------14------14-----12------
------------------------------------------------------------------------------------------------------------------------
------------------------------------------------------------------------------------------------------------------------
------------------------------------------------------------------------------------------------------------------------

-12--------------------------------------------------------------------------------------------------------------------
-12--------------------------------------------------------------------------------------------------------------------
-12--------------------------------------------------------------------------------------------------------------------
------------------------------------------------------------------------------------------------------------------------
------------------------------------------------------------------------------------------------------------------------
------------------------------------------------------------------------------------------------------------------------

Almost there ...

Sign in to get your own page with links to favourite songs and more. You are just one click away...

Login with Facebook Login with Google