Log in

One click and you are in

Login with Facebook Login with Google

Why sign up and log in

Guitar Tabs Explorer
Tiersen Yann chords for Comptine d un autre Été - laprès midi ukulele

Comptine D Un Autre Été - Laprès Midi Ukulele chords by Tiersen Yann

Tiersen Yann chords for Comptine d un autre Été - laprès midi ukulele

Chords

  • Difficulty: Intermediate
Tuning: G C E A (G C E A)

🎸 Intro:

A|---2---2---2---2-|---2---2---2---2-|---2---2---2---2-|---0---0---0---0-|
E|-0-------0-------|-----------------|-----2-------2---|-----2-------2---|
C|-----------------|-2-------2-------|-2-------2-------|-2-------2-------|
G|-----0-------0---|-----0-------0---|-----------------|-----------------|
Part 1:

A|---------2h3p2-2---2-|---------------2---2-|---------2h3p2-2---2-|---------0---0---0-|
E|---3p2h3-------------|---2h3p2-3h5p3-------|---2p0h2---------2---|---2p0h2-------2---|
C|-4-------------------|-2-------------------|-2-------------------|-2---------2-------|
G|-----------------0---|-----------------0---|---------------------|-------------------|


A|---------2h3p2-2---2-|---------------2---2-|---------2h3p2-2---2-|---------0---0---0-|
E|---3p2h3-------------|---2h3p2-3h5p3-------|---2p0h2---------2---|---2p0h2-------2---|
C|-4-------------------|-2-------------------|-2-------------------|-2---------2-------|
G|-----------------0---|-----------------0---|---------------------|-------------------|


Part 2:

A|>7-2-->2---2---2-|>5-2-->2---2---2-|>9-2-->2---2---2-|>9-0-->0---0---0-|
E|---------0-------|-----------------|-----2-------2---|-----2-------2---|
C|-----------------|-2-------2-------|-2-------2-------|-2-------2-------|
G|-0---0-------0---|-----0-------0---|-----------------|-----------------|

A|>10---->7---------|>10---->5---------|>9-2-->5---2---2-|>9-0-->5---0---0-|
E|--7-7---7-0-7---7-|--7-7-----0-7---7-|-7---2-2-----2---|-5---2-2-----2---|
C|------------------|--------7-----7---|---------2-------|---------2-------|
G|------0-------0---|------0-----------|-----------------|-----------------|

Part 3:

A|-----14-----14-----14-----15----14-|-----14-----14-----14-----12----9-|
E|---12-----12-----12-----12---------|---10-----10-----10-----10--------|
C|-11-----11-----11-----11-----11----|-11-----11-----11-----11-----11---|
G|-----------------------------------|----------------------------------|

A|---9---9---9---10---9-|----12----12----12----12---10----|
E|--7---7---7---7-------|--10----10----10----10--------10-|
C|-6---6---6---6----6---|-9-----9-----9-----9-----9-------|
G|----------------------|---------------------------------|
Part 1:


A|---------2h3p2-2---2-|---------------2---2-|---------2h3p2-2---2-|---------0---0---0-|
E|---3p2h3-------------|---2h3p2-3h5p3-------|---2p0h2---------2---|---2p0h2-------2---|
C|-4-------------------|-2-------------------|-2-------------------|-2---------2-------|
G|-----------------0---|-----------------0---|---------------------|-------------------|


A|---------2h3p2-2---2-|---------------2---2-|---------2h3p2-2---2-|---------0---0---0-|
E|---3p2h3-------------|---2h3p2-3h5p3-------|---2p0h2---------2---|---2p0h2-------2---|
C|-4-------------------|-2-------------------|-2-------------------|-2---------2-------|
G|-----------------0---|-----------------0---|---------------------|-------------------|


Part 2:

A|>7-2-->2---2---2-|>5-2-->2---2---2-|>9-2-->2---2---2-|>9-0-->0---0---0-|
E|---------0-------|-----------------|-----2-------2---|-----2-------2---|
C|-----------------|-2-------2-------|-2-------2-------|-2-------2-------|
G|-0---0-------0---|-----0-------0---|-----------------|-----------------|

A|>10---->7---------|>10---->5---------|>9-2-->5---2---2-|>9-0-->5---0---0-|
E|--7-7---7-0-7---7-|--7-7-----0-7---7-|-7---2-2-----2---|-5---2-2-----2---|
C|------------------|--------7-----7---|---------2-------|---------2-------|
G|------0-------0---|------0-----------|-----------------|-----------------|


Part 3:

A|-----14-----14-----14-----15----14-|-----14-----14-----14-----12----9-|
E|---12-----12-----12-----12---------|---10-----10-----10-----10--------|
C|-11-----11-----11-----11-----11----|-11-----11-----11-----11-----11---|
G|-----------------------------------|----------------------------------|

A|---9---9---9---10---9-|----12----12----12----12---10----|-7-----------|
E|--7---7---7---7-------|--10----10----10----10--------10-|-7-----------|
C|-6---6---6---6----6---|-9-----9-----9-----9-----9-------|-7-----------|
G|----------------------|---------------------------------|-------------|


************************************


| h  Hammer-on
| p  Pull-off
| >  Accented note
************************************

Almost there ...

Sign in to get your own page with links to favourite songs and more. You are just one click away...

Login with Facebook Login with Google