Log in

One click and you are in

Login with Facebook Login with Google

Why sign up and log in

Guitar Tabs Explorer
Y And T bass tabs for Anytime at all

Bass tabs

"Anytime At All" - Y&T
-------------------------------------------------------------------------------

Tabbed By : jaymerut
e-mail: jaymerut@gmail.com
Tuning: Standard


Intro:

G||----------------|----------------|----------------|----------------|
D||----------------|----------------|----------------|----------------|
A||-1-1------------|-1---3-3--------|-5--------------|-6--6--6--------|
E||----------------|----------------|----------------|----------------|


Intro Verse:

G||----------------|----------------|----------------|----------------|
D||----------------|----------------|----------------|----------------|
A||-1---1-1---1-1--|-1-1---1-3---3-3|---3-3---3-3---3|-5---5-5---5-5--|
E||----------------|----------------|----------------|----------------|

G||----------------|----------------|
D||----------------|----------------|
A||-5-5---5-6--6--6|----------------|
E||----------------|----------------|


Verse:

G||----------------|----------------|----------------|----------------|
D||----------------|----------------|----------------|----------------|
A||----------------|---------3---3-3|---3-3---3---1-3|-5---5-5---5-5--|
E||-1---1-1---1-1--|-1-1---1--------|-----------3----|----------------|

G||----------------|----------------|
D||----------------|----------------|
A||-5-5---5-1--1--1|----------------|
E||----------------|----------------|

G||----------------|----------------|----------------|----------------|
D||----------------|----------------|----------------|----------------|
A||----------------|---------3---3-3|---3-3---3---1-3|-5---5-5---5-5--|
E||-1---1-1---1-1--|-1-1---1--------|-----------3----|----------------|

G||----------------|----------------|
D||----------------|----------------|
A||-5-5---5-3--3--3|----------------|
E||----------------|----------------|

G||----------------|----------------|----------------|----------------|
D||----------------|----------------|----------------|----------------|
A||-1---1-1---1-1--|-1-1---1-3---3-3|---3-3---3-3---3|-5---5-5---5-5--|
E||----------------|----------------|----------------|----------------|

G||----------------|----------------|
D||----------------|----------------|
A||-5-5---5-6------|-------1-1-1-1-1|
E||----------------|----------------|

Chorus:

G||----------------|----------------|----------------|----------------|
D||----------------|----------------|----------------|----------------|
A||----------------|----------------|--3--3--3-3--5--|5--5-5--5--5--5-|
E||-1--1--1-1--1--1|--1-1--1--1--1-1|----------------|----------------|

G||----------------|
D||----------------|
A||5--1--1--1------|
E||----------------|


Bridge:

G||----------------|----------------|----------------|----------------|
D||----------------|----------------|---3------------|----------------|
A||-1-3-5--3-1-3-5-|----------------|-1---3--1-3-----|----------------|
E||----------------|----------------|----------------|----------------|

G||----------------|----------------|
D||----------------|----------------|
A||----------------|---------1---3--| X2
E||-1-3-5--3-1-3-5-|----------------|

Guitar Solo

G||----------------|----------------|----------------|----------------|
D||-3---3-3---3-3--|-3-3---3-3---3-3|---3-3---3-3---3|----------------|
A||----------------|----------------|----------------|-5---5-5---5-5--|
E||----------------|----------------|----------------|----------------|

G||----------------|----------------|
D||----------------|----------------|
A||-5-5---5-1--1--1|----------------|
E||----------------|----------------|

G||----------------|----------------|----------------|----------------|
D||-3---3-3---3-3--|-3-3---3-3---3-3|---3-3---3-3---3|----------------|
A||----------------|----------------|----------------|-5---5-5---5-5--|
E||----------------|----------------|----------------|----------------|

G||----------------|----------------|
D||----------------|----------------|
A||-5-5---5-3--3--3|----------------|
E||----------------|----------------|

Last Verse:

G||----------------|----------------|----------------|----------------|
D||----------------|----------------|----------------|----------------|
A||----------------|---------3---3-3|---3-3---3---1-3|-5---5-5---5-5--|
E||-1---1-1---1-1--|-1-1---1--------|-----------3----|----------------|

G||----------------|----------------|
D||----------------|----------------|
A||-5-5---5-1--1--1|----------------|
E||----------------|----------------|

G||----------------|----------------|----------------|----------------|
D||----------------|----------------|----------------|----------------|
A||----------------|---------3---3-3|---3-3---3---1-3|-5---5-5---5-5--|
E||-1---1-1---1-1--|-1-1---1--------|-----------3----|----------------|

G||----------------|----------------|
D||----------------|----------------|
A||-5-5---5-3--3--3|----------------|
E||----------------|----------------|

G||----------------|----------------|----------------|----------------|
D||----------------|----------------|----------------|----------------|
A||-1---1-1---1-1--|-1-1---1-3---3-3|---3-3---3-3---3|-5---5-5---5-5--|
E||----------------|----------------|----------------|----------------|

G||----------------|----------------|----------------|
D||----------------|----------------|----------------|
A||-5-5---5-6------|----------------|1---------------|
E||----------------|----------------|----------------|

G||----------------|
D||----------------|
A||-6-----1-1-1-1-1|
E||----------------|



Intro X1

Intro Verse X1

Verse X1

Chorus X1

Verse X1

Chorus X2

Bridge X1
Guitar Solo X1
Last Verse X1

Almost there ...

Sign in to get your own page with links to favourite songs and more. You are just one click away...

Login with Facebook Login with Google