Log in

One click and you are in

Login with Facebook Login with Google

Why sign up and log in

Guitar Tabs Explorer
Xyz tabs for Hh boogie

Intro with lyrics

H.H. Boogie
by XYZ

This is just the main riff which is in the intro and repeats in the chorus.
The rest of the chords should be easy enough to figure out on your own.

TO get this to sound just right, of course there are a lot of little things
that you have to do, such as palm muting, fret hand muting, chirping, etc.
Listen to the song and keep playing with it and you'll get it. I noted a
1/4 bend and a fret hand mute, but listen for more palm muting in the song,
such as with those notes on the A chord diagramD MajorD and A chord diagramA augmentedA strings.
Intro/Main Riff
                                             fret hand
                    ¼ bend                      muted
--1-/-2--2------------------------------------------------------------|
--1-/-2--2--4--2--------------------------------x--x---4-4b-4r-4b-4r--|
------------4--2-------2b-----------------------x--x---4-4b-4r-4b-4r--|
-----------------4---------4--4--2--2—-2--4—-4------------------------|
--------------------4-------------------------------------------------|
----------------------------------------------------------------------|

                                             fret hand
                    ¼ bend                      muted
--1-/-2--2------------------------------------------------------------|
--1-/-2--2--4--2--------------------------------x--x------------------|
------------4--2-------2b-----------------------x--x------------------|
-----------------4---------4--4--2--2—-2--4—-4------------------------|
--------------------4----------------------------------2--------------|
-------------------------------------------------------0--------------|

                                             fret hand
                    ¼ bend                      muted
--1-/-2--2------------------------------------------------------------|
--1-/-2--2--4--2--------------------------------x--x------------------|
------------4--2-------2b-----------------------x--x---4-4b-4r-4b-4r--|
-----------------4---------4--4--2--2—-2--4—-4------------------------|
--------------------4-------------------------------------------------|
----------------------------------------------------------------------|

                                             fret hand
                    ¼ bend                      muted
--1-/-2--2------------------------------------------------------------|
--1-/-2--2--4--2--------------------------------x--x------------------|
------------4--2-------2b-----------------------x--x------------------|
-----------------4---------4--4--2--2—-2--4—-4------------------------|
--------------------4----------------------------------2--------------|
-------------------------------------------------------0--------------|

Almost there ...

Sign in to get your own page with links to favourite songs and more. You are just one click away...

Login with Facebook Login with Google