Log in

One click and you are in

Login with Facebook Login with Google

Why sign up and log in

Guitar Tabs Explorer
Xylophobiac chords for Have it your way

Guitar chords

Artists Name- Xylophobiac
Song Name-Have it Your Way
Transcribed by-Dave Corbin


"Have it Your Way"off of Its Raining Men...
Intro/Verse (Strum like a disco song the X's are for the raka sound)
normal pace

e:|-5--5--5--X-X--3--3--3-X-X--3--3--3-X-X--0--0--0-X-X-
b:|-6--6--6--X-X--3--3--3-X-X--4--4--4-X-X--0--0--0-X-X-
g:|-5--5--7--X-X--4--4--4-X-X--3--3--3-X-X--1--1--1-X-X- REPEAT
d:|-7--7--7--X-X--3--3--3-X-X--5--5--5-X-X--2--2--2-X-X-
a:|-5--5--5--X-X--5--5--5-X-X--3--3--3-X-X--2--2--2-X-X-
E:|---------------3--3--3-X-X----------X-X--0--0--0-X-X-

Chourus

e:|--------------------------------------
b:|--------------------------------------
g:|--5-5-5-------------------------------
d:|--5-5-5-6-6-6--3-3-3-3-3-3------------
a:|--3-3-3-6-6-6--3-3-3-3-3-3------------
E:|--------4-4-4--1-1-1-1-1-1------------


Outro

e:|-5--5--5--X-X--3--3--3-X-X--3--3--3-X-X--0--0--0-X-X-
b:|-6--6--6--X-X--3--3--3-X-X--4--4--4-X-X--0--0--0-X-X-
g:|-5--5--7--X-X--4--4--4-X-X--3--3--3-X-X--1--1--1-X-X- REPEAT
d:|-7--7--7--X-X--3--3--3-X-X--5--5--5-X-X--2--2--2-X-X-
a:|-5--5--5--X-X--5--5--5-X-X--3--3--3-X-X--2--2--2-X-X-
E:|---------------3--3--3-X-X----------X-X--0--0--0-X-X-


Verse
----------------
Your a style ...
You move like ...
I wont lie to ...
But when I touch ...

Chourus
--------------
Have it ....
Its gonna ...
Have it ...
the time ...
I don't ...
Its got ...
Its time ...
Have it ...


Verse
-------------
There in love ...
When I am ...
You thought ...
I think its time ...


Verse
Chourus

Verse
Chourus

Outro

Its a pretty simple song but most of there other stuff has solos and
fast riffs.

There CD rules.I will try to post other stuff off of it.

Almost there ...

Sign in to get your own page with links to favourite songs and more. You are just one click away...

Login with Facebook Login with Google