Search tabs and chords

Search for song, artist or band

Log in

One click and you are in

Login with Facebook Login with Google

Why sign up and log in

Guitar Tabs Explorer
Xxxtentacion guitar tabs for Whoa mind in awe

Guitar tabs with lyrics

Tuning: Standard (E A D G B E)

whoa (mind in awe) - XXXTENTACION

The song features multiple xylophone tracks that get stacked onto eachother.
These patterns are given below.

The order of the patterns which make up the loop is:

| Pattern 1 | Pattern 1      |
|           | Pattern 2      |  --> Loop for the whole song
|           |     |Pattern 3 |

Pattern 3 starts with the second bar of pattern 2.

The tabbed patterns below are in sync.
Pattern 1:

      |Dmaj7
e|---------------------------------------------------------------------------|
B|--------5---2---5---2-------2-------2--------------------------------------|
G|----2-------------------4-------4-------2----------------------------------|
D|---------------------------------------------------------------------------|
A|---------------------------------------------------------------------------|
E|---------------------------------------------------------------------------|

                                  |Bm
e|---------------------------------------------------------------------------|
B|--------5---2---5---2-------2----------------------------------------------|
G|----2-------------------4-------4---1---2----------------------------------|
D|---------------------------------------------------------------------------|
A|---------------------------------------------------------------------------|
E|---------------------------------------------------------------------------|

Pattern 2:

       |F#m
e|----(5)---5---4---5---7---5---7---9---7---4--------------------------------|
B|---------------------------------------------------------------------------|
G|---------------------------------------------------------------------------|
D|---------------------------------------------------------------------------|
A|---------------------------------------------------------------------------|
E|---------------------------------------------------------------------------|
                                    |E
e|----(5)---5---4---5---7---5---7---5---4------------------------------------|
B|---------------------------------------------------------------------------|
G|---------------------------------------------------------------------------|
D|---------------------------------------------------------------------------|
A|---------------------------------------------------------------------------|
E|---------------------------------------------------------------------------|


Pattern 3: (Starts with the second bar of pattern 2)

e|----12---10---9-------------------7---5------------------------------------|
B|---------------------------------------------------------------------------|
G|---------------------------------------------------------------------------|
D|---------------------------------------------------------------------------|
A|---------------------------------------------------------------------------|
E|---------------------------------------------------------------------------|


************************************

| (n)  Ghost note

************************************

Other versions of Whoa Mind In Awe

Whoa Mind in AweChords

Almost there ...

Sign in to get your own page with links to favourite songs and more. You are just one click away...

Login with Facebook Login with Google