Log in

One click and you are in

Login with Facebook Login with Google

Why sign up and log in

Guitar Tabs Explorer
Xxxtentacion guitar tabs for The remedy for a broken heart why am i so in love (Ver. 3)

The Remedy For A Broken Heart Why Am I So In Love tab by Xxxtentacion (Ver. 3)

Xxxtentacion guitar tabs for The remedy for a broken heart why am i so in love (Ver. 3)

Intro

Tuning: Standard (E A D G B E)

Intro:
e|---------------------------------------------------------------------------|
B|---------------------------------------------------------------------------|
G|--6------------5------------6------------5---------------------------------|
D|---------------------------------------------------------------------------|     x1
A|---------------------------------------------------------------------------|
E|--6------------4------------6------------4---------------------------------|

e|---------------------------------------------------------------------------|
B|-----------------------------1---1---1---1---------------------------------|
G|--6------------5-----------3---3---3---3-----------------------------------|
D|---------------------------------------------------------------------------|     x1
A|---------------------------------------------------------------------------|
E|--6------------4-----------2---2---2---2-----------------------------------|

e|---------s-----------s-----------------------------------------------------|
B|---------s-----------s-------1---1---1---1---------------------------------|
G|--6------s--8--5-----s--6--3---3---3---3-----------------------------------|     repeats throughout
D|---------s-----------s-----------------------------------------------------|
A|---------s-----------s-----------------------------------------------------|
E|--6------s-----4-----s-----2---2---2---2-----------------------------------|


************************************

| s   Slap

************************************

Other versions of The Remedy For A Broken Heart Why Am I So In Love

The Remedy For A Broken Heart Why Am I So in LoveTabs
The Remedy For A Broken Heart Why Am I So in Love (Ver. 2)Tabs

Almost there ...

Sign in to get your own page with links to favourite songs and more. You are just one click away...

Login with Facebook Login with Google