Log in

One click and you are in

Login with Facebook Login with Google

Why sign up and log in

Guitar Tabs Explorer
Xxxtentacion guitar tabs for The remedy for a broken heart why am i so in love (Ver. 2)

The Remedy For A Broken Heart Why Am I So In Love tab by Xxxtentacion (Ver. 2)

Xxxtentacion guitar tabs for The remedy for a broken heart why am i so in love (Ver. 2)

Guitar tabs

Tuning: Standard (E A D G B E)

Key: A chord diagramG MajorG

Difficulty: Novice

Intro:

e|-------------------------------------|-------------------------------------|
B|---2-----1-----2-----1-----2-----1---|-------1---------1---------1---------|
G|---3-----1-----3-----1-----3-----1---|--3---------3---------3--------------|
D|-------------------------------------|-------------------------------------|
A|-------------------------------------|-------------------------------------|
E|-------------------------------------|-------------------------------------|
                                                                                   x1
e|-------------------------------------|-------------------------------------|
B|---------1---------------------------|-------------------------------------|
G|---3---------------------------------|-------------------------------------|
D|-------------------------------------|-------------------------------------|
A|-------------------------------------|-------------------------------------|
E|-------------------------------------|-------------------------------------|


Verse & Chorus:

e|---------------------------------------------------------------------------|
B|---2-----4-----1-----1---------1---------1---------1---------1-------------|
G|---3-----------1----------3---------3---------3---------3------------------|
D|---------------------------------------------------------------------------|
A|---------------------------------------------------------------------------|
E|---------------------------------------------------------------------------|
                                                                                   x14
e|---------------------------------------------------------------------------|
B|---------------------------------------------------------------------------|
G|---------------------------------------------------------------------------|
D|---------------------------------------------------------------------------|
A|---------------------------------------------------------------------------|
E|---------------------------------------------------------------------------|

Outro:

e|-------------------------------------|-------------------------------------|
B|---2-----1-----2-----1-----2-----1---|-------1---------1---------1---------|
G|---3-----1-----3-----1-----3-----1---|--3---------3---------3--------------|
D|-------------------------------------|-------------------------------------|
A|-------------------------------------|-------------------------------------|
E|-------------------------------------|-------------------------------------|
                                                                                   x2
e|-------------------------------------|-------------------------------------|
B|---------1---------------------------|-------------------------------------|
G|---3---------------------------------|-------------------------------------|
D|-------------------------------------|-------------------------------------|
A|-------------------------------------|-------------------------------------|
E|-------------------------------------|-------------------------------------|



************************************

| x  Dead note

************************************

Other versions of The Remedy For A Broken Heart Why Am I So In Love

The Remedy For A Broken Heart Why Am I So in LoveTabs
The Remedy For A Broken Heart Why Am I So in Love (Ver. 3) - IntroTabs

Almost there ...

Sign in to get your own page with links to favourite songs and more. You are just one click away...

Login with Facebook Login with Google