Log in

One click and you are in

Login with Facebook Login with Google

Why sign up and log in

Guitar Tabs Explorer
Xxxtentacion guitar tabs for Staring at the sky

Guitar tabs

Tuning: Standard (E A D G B E)

Difficulty: Novice

Intro:
e|------------------------------------|------------------------------------|
B|------------------------------------|------------------------------------|
G|-----0---0---0---0---0---0---0---0--|-----0---0---0---0---0---0----------|
D|------------------------------------|------------------------------------| (x2)
A|--10---8---7---3---5---7---7---3----|--10---8---7---3---5---7---7--------|
E|------------------------------------|------------------------------------|

Chorus 1:
e|------------------------------------|------------------------------------|
B|------------------------------------|------------------------------------|
G|-----0---0---0---0---0---0---0---0--|-----0---0---0---0---0---0----------|
D|------------------------------------|------------------------------------| (x2)
A|--10---8---7---3---5---7---7---3----|--10---8---7---3---5---7---7--------|
E|------------------------------------|------------------------------------|

Verse 1:
e|------------------------------------|------------------------------------|
B|------------------------------------|------------------------------------|
G|-----0---0---0---0---0---0---0---0--|-----0---0---0---0---0---0----------|
D|------------------------------------|------------------------------------| (x2)
A|--10---8---7---3---5---7---7---3----|--10---8---7---3---5---7---7--------|
E|------------------------------------|------------------------------------|


Bridge: *Distortion on*
e|------------------------------------|------------------------------------|
B|------------------------------------|------------------------------------|
G|-----0---0---0---0---0---0---0---0--|-----0---0---0---0------------------|
D|------------------------------------|------------------------------------| (x3)
A|--10---8---7---3---5---7---7---3----|--10---8---7---3---5----------------|
E|------------------------------------|------------------------------------|

e|------------------------------------|------------------------------------|
B|------------------------------------|------------------------------------|
G|-----0---0---0---0---0---0---0---0--|-----0---0---0---0---0---0----------|
D|------------------------------------|------------------------------------|
A|--10---8---7---3---5---7---7---3----|--10---8---7---3---5---7---7--------|
E|------------------------------------|------------------------------------|

Chorus 2: *Distortion off*
e|------------------------------------|------------------------------------|
B|------------------------------------|------------------------------------|
G|-----0---0---0---0---0---0---0---0--|-----0---0---0---0---0---0----------|
D|------------------------------------|------------------------------------| (x2)
A|--10---8---7---3---5---7---7---3----|--10---8---7---3---5---7---7--------|
E|------------------------------------|------------------------------------|

Almost there ...

Sign in to get your own page with links to favourite songs and more. You are just one click away...

Login with Facebook Login with Google