Search tabs and chords

Search for song, artist or band

Log in

One click and you are in

Login with Facebook Login with Google

Why sign up and log in

Guitar Tabs Explorer
Xxxtentacion guitar tabs for One minute

Guitar tabs

Tuning: Standard (E A D G B E)

Difficulty: Novice

*Tune your low A chord diagramE MajorE string down to A chord diagramA majorA

Intro:
e|-----------------------|------------------------|
B|-----------------------|------------------------|
G|-----------------------|------------------------|
D|-----------------------|------------------------| (x2)
A|-----------------------|------------------------|
A|--7--7-8---7--7-8---2--|--7--7-8---7--7-8--3-2--|
Verse 1 -Kanye West:
e|-----------------------|------------------------|
B|-----------------------|------------------------|
G|-----------------------|------------------------|
D|-----------------------|------------------------| (x3)
A|-----------------------|------------------------|
A|--7--7-8---7--7-8---2--|--7--7-8---7--7-8--3-2--|

e|-----------------------|------------------------|
B|-----------------------|------------------------|
G|-----------------------|------------------------|
D|-----------------------|------------------------|
A|-----------------------|------------------------|
A|--7--7-8---7--7-8---2--|--7--7-8---7------------|

e|-----------------------|------------------------|
B|-----------------------|------------------------|
G|-----------------------|------------------------|
D|-----------------------|------------------------| (x2)
A|-----------------------|------------------------|
A|--7--7-8---7--7-8---2--|--7--7-8---7--7-8--3-2--|

e|-----------------------|------------------------|-----------------------|------------------------|
B|-----------------------|------------------------|-----------------------|------------------------|
G|-----------------------|------------------------|-----------------------|------------------------|
D|-----------------------|------------------------|-----------------------|------------------------|
A|-----------------------|------------------------|-----------------------|------------------------|
A|--7--7-8---7--7-8------|--7--7-8---7--7-8-------|--7--7-8---7--7-8---2--|--7--7-8---7--7-8--3-2--|

e|-----------------------|------------------------|
B|-----------------------|------------------------|
G|-----------------------|------------------------|
D|-----------------------|------------------------| (x2)
A|-----------------------|------------------------|
A|--7--7-8---7--7-8------|--7--7-8---7--7-8--3-2--|

e|-----------------------|------------------------|-----------------------|------------------------|
B|-----------------------|------------------------|-----------------------|------------------------|
G|-----------------------|------------------------|-----------------------|------------------------|
D|-----------------------|------------------------|-----------------------|------------------------|
A|-----------------------|------------------------|-----------------------|------------------------|
A|--7--7-8---7--7-8---2--|--7--7-8---7------------|--7--7-8---7--7-8---2--|--7--7-8---7--7-8----2--|

e|-----------------------|------------------------|-----------------------|------------------------|
B|-----------------------|------------------------|-----------------------|------------------------|
G|-----------------------|------------------------|-----------------------|------------------------|
D|-----------------------|------------------------|-----------------------|------------------------|
A|-----------------------|------------------------|-----------------------|------------------------|
A|--7--7-8---7--7-8---2--|--7--7-8---7--7-8--3-2--|--7--7-8---7--7-8---2--|--7--7-8---7------------|

e|-----------------------|------------------------|
B|-----------------------|------------------------|
G|-----------------------|------------------------|
D|-----------------------|------------------------| (x3)
A|-----------------------|------------------------|
A|--7--7-8---7--7-8---2--|--7--7-8---7--7-8--3-2--|

e|-----------------------|------------------------|
B|-----------------------|------------------------|
G|-----------------------|------------------------|
D|-----------------------|------------------------|
A|-----------------------|------------------------|
A|--7--7-8---7--7-8---2--|------------------------|

Chorus -XxxTentacion:
e|-----------------------|------------------------|
B|-----------------------|------------------------|
G|-----------------------|------------------------|
D|-----------------------|------------------------| (x3)
A|-----------------------|------------------------|
A|--7--7-8---7--7-8---2--|--7--7-8---7--7-8--3-2--|

e|-----------------------|------------------------|
B|-----------------------|------------------------|
G|-----------------------|------------------------|
D|-----------------------|------------------------|
A|-----------------------|------------------------|
A|--7--7-8---7--7-8---2--|--7--7-8---7------------|

e|-----------------------|------------------------|
B|-----------------------|------------------------|
G|-----------------------|------------------------|
D|-----------------------|------------------------| (x2)
A|-----------------------|------------------------|
A|--7--7-8---7--7-8---2--|--7--7-8---7--7-8--3-2--|

e|-----------------------|------------------------|-----------------------|------------------------|
B|-----------------------|------------------------|-----------------------|------------------------|
G|-----------------------|------------------------|-----------------------|------------------------|
D|-----------------------|------------------------|-----------------------|------------------------|
A|-----------------------|------------------------|-----------------------|------------------------|
A|--7--7-8---7--7-8------|--7--7-8---7--7-8-------|--7--7-8---7--7-8---2--|--7--7-8---7--7-8--3-2--|

e|-----------------------|-------------------------|------------------------|------------------------|
B|-----------------------|-------------------------|------------------------|------------------------|
G|-----------------------|-------------------------|------------------------|------------------------|
D|-----------------------|-------------------------|------------------------|------------------------|
A|-----------------------|-------------------------|------------------------|------------------------|
A|--7--7-8---7--7-8------|--7--7-8---7--7-8---3-2--|--7--7-8---7--7-8-------|--7--7-8---7--7-8--3-2--|

e|-----------------------|------------------------|-----------------------|-----------------------|
B|-----------------------|------------------------|-----------------------|-----------------------|
G|-----------------------|------------------------|-----------------------|-----------------------|
D|-----------------------|------------------------|-----------------------|-----------------------|
A|-----------------------|------------------------|-----------------------|-----------------------|
A|--7--7-8---7--7-8---2--|--7--7-8---7------------|--7--7-8---7--7-8---2--|--7--7-8---7--7-8---2--|

e|-----------------------|------------------------|-----------------------|------------------------|
B|-----------------------|------------------------|-----------------------|------------------------|
G|-----------------------|------------------------|-----------------------|------------------------|
D|-----------------------|------------------------|-----------------------|------------------------|
A|-----------------------|------------------------|-----------------------|------------------------|
A|--7--7-8---7--7-8---2--|--7--7-8---7--7-8--3-2--|--7--7-8---7--7-8---2--|--7--7-8---7------------|

Almost there ...

Sign in to get your own page with links to favourite songs and more. You are just one click away...

Login with Facebook Login with Google