Log in

One click and you are in

Login with Facebook Login with Google

Why sign up and log in

Guitar Tabs Explorer
Xxxtentacion guitar tabs for Numb

Guitar tabs

Tuning: Standard (E A D G B E)

Key: A chord diagramA#mA#m

Difficulty: Novice

Nylon strings sound the best.
Intro:

e|--------------------------------------------------------------------------------------|
B|--------------------------------------------------------------------------------------|
G|--------------------------------------------------------------------------------------|
D|--------------------------------------------------------------------------------------| x2
A|--------------------------------------------------------------------------------------|
E|-7-7-7-7-7-7-7-7-3-3-3-3-3-3-3-3-0-0-0-0-0-0-0-0-2-2-2-2-2-2-2-2----------------------|


Verse: (play the verse 2 times in a row)

e|-10-10-10-10-10-10-10-10-----------------12-12-12-12-12-12-12-12-9-9-9-9-9-9-9-9-|
B|-------------------------8-8-8-8-8-8-8-8-----------------------------------------|
G|---------------------------------------------------------------------------------| x2
D|---------------------------------------------------------------------------------|
A|---------------------------------------------------------------------------------|
E|---------------------------------------------------------------------------------|

e|-10-9----10-9----10-9----10-9--|
B|-----7-------8-------7-5-----7-|
G|-------------------------------|
D|-------------------------------|
A|-------------------------------|
E|-------------------------------|


Solo:

e|-12/15-14-14-12-12-7/10-8-8-8-8-8-7/10-8-8-8-8-8\7-7----------------------------------|
B|--------------------------------------------------------------------------------------|
G|--------------------------------------------------------------------------------------|
D|--------------------------------------------------------------------------------------|
A|--------------------------------------------------------------------------------------|
E|--------------------------------------------------------------------------------------|


************************************

| /  Slide up
| \  Slide down

************************************

Other versions of Numb

NumbChords

Almost there ...

Sign in to get your own page with links to favourite songs and more. You are just one click away...

Login with Facebook Login with Google