Search tabs and chords

Search for song, artist or band

Log in

One click and you are in

Login with Facebook Login with Google

Why sign up and log in

Guitar Tabs Explorer
Xxxtentacion guitar tabs for Looking for a star

Guitar tabs with lyrics

Intro:
E|--------------------------------------------------------------|
B|--------------------------------------------------------------|
G|--3--3-----3--------------------------------------------------|
D|-----------------6-----6p4-----4--------1-----1--2--1---------|
A|--------------------------------------------------------------|
E|-------------------------------4------------------------------|

1st verse:
     Cant     seem to     explain a thing       going on in my      head    (on in my     head)
E|-----------------------------------------------------------------------------------------------------------|
B|-----------------------------------------------------------------------------------------------------------|
G|-----------------------------------------------------------------------------------------------------------|
D|-----4--------1--1--------2--4--4--1-----------1--1--1--1--1------1h2p1---1--1--1------1h2p1---------------|
A|-----------------------------------------------------------------------------------------------------------|
E|-----------------------------------------------------------------------------------------------------------|

   The memories   seem to  fade away    with the thoughts in my head   (the thoughts in my head)
E|-----------------------------------------------------------------------------------------------|
B|-----------------------------------------------------------------------------------------------|
G|-----------------------------------------------------------------------------------------------|
D|--2--4--4--1-----1--2-----4--4--1--------1--1--1--1--1------1h2p1------1--1--1--1------1h2p1---|
A|-----------------------------------------------------------------------------------------------|
E|-----------------------------------------------------------------------------------------------|

   Run  from  diffe-rent    enemies   and the thoughts in my head    (thoughts in my head)
E|-----------------------------------------------------------------------------------------|
B|-----------------------------------------------------------------------------------------|
G|-----------------------------------------------------------------------------------------|
D|--4-----1-----1--2--------4--4--1-----1--1--1--1--1------1h2p1------1--1--1------1h2p1---|
A|-----------------------------------------------------------------------------------------|
E|-----------------------------------------------------------------------------------------|

   Run  from  diffe-rent    enemies   and the thoughts in my head  (thoughts in my)
E|--------------------------------------------------------------------------------------|
B|------------------------------------------------------------------------------4b------|
G|--------------------------------------------------------------------------------------|
D|--4-----1-----1--2--------4--4--1-----1--1--1--1--1------1h2p1------1--1--------------|
A|--------------------------------------------------------------------------------------|
E|--------------------------------------------------------------------------------------|

2nd verse:
   And  where  did   you   go    as  i  slept   (as i  slept)
E|-----------------------------------------------------------------|
B|-----------------------------------------------------------------|
G|--6-----8-----6-----4-----3-----3--3---4p1-----3--3---4p1--------|
D|-----------------------------------------------------------------|
A|-----------------------------------------------------------------|
E|-----------------------------------------------------------------|

    I   can't  seem  to    get   out my  head  (out my  head)
E|--------------------------------------------------------------|
B|--------------------------------------------------------------|
G|--6-----8-----6-----4-----3-----3--3---4p1-----3--3---4p1-----|
D|--------------------------------------------------------------|
A|--------------------------------------------------------------|
E|--------------------------------------------------------------|

    I   wept   and   i'll  count   the tears i   shed   (tears i   shed,   tears i)
E|--------------------------------------------------------------------------------------|
B|--------------------------------------------------------------------------------------|
G|--6-----8-----6-----4-----3--------3--3--3------4p1-----3--3------4p1-----3--3--------|
D|--------------------------------------------------------------------------------------|
A|--------------------------------------------------------------------------------------|
E|--------------------------------------------------------------------------------------|

  She    sat  there and  watched  as i   bled   (as i  bled,    as i bled)
E|-----------------------------------------------------------------------------------------|
B|-----------------------------------------------------------------------------------------|
G|--6-----8-----6-----4-----3-----3--3---4p1-----3--3---4p1-----3--3---3p1-----------------|
D|-----------------------------------------------------------------------------------------|
A|-----------------------------------------------------------------------------------------|
E|-----------------------------------------------------------------------------------------|

    As i  bled x2
E|--------------------|x2
B|--------------------|
G|--3--3---4p1--------|
D|--------------------|
A|--------------------|
E|--------------------|

The fast instrumental part:
E|-----------------------------------------------------------------| x2
B|-----------------------------------------------------------------|
G|-----------------------------------------------------------------|
D|--1-----------------0--1--1--0--1--1--0--1--1--0--1--1--0--1--1--|
A|-----4--2--4--2--------------------------------------------------|
E|-----------------------------------------------------------------|

E|-----------------------------------------------------------------|
B|--4--------------3--4--4--3--4--4--3--4--4--3--4--4--3--4--4-----|
G|-----6--4--6--4--------------------------------------------------|
D|-----------------------------------------------------------------|
A|-----------------------------------------------------------------|
E|-----------------------------------------------------------------|

                         As i  bled
E|--------------------------------------|
B|--4-----------------------------------|
G|-----6--4--6--4--------3--3---4p1-----|
D|--------------------------------------|
A|--------------------------------------|
E|--------------------------------------|

E|-----------------------------------------------------------------| x2
B|-----------------------------------------------------------------|
G|-----------------------------------------------------------------|
D|--1--------------0--1--1--0--1--1--0--1--1--0--1--1--0--1--1-----|
A|-----4--2--4--2--------------------------------------------------|
E|-----------------------------------------------------------------|

E|-----------------------------------------------------------------|
B|--4--------------3--4--4--3--4--4--3--4--4--3--4--4--3--4--4-----|
G|-----6--4--6--4--------------------------------------------------|
D|-----------------------------------------------------------------|
A|-----------------------------------------------------------------|
E|-----------------------------------------------------------------|

Ending:
  And   where  did   you   go    as  i     slept   (as i  slept)
E|-----------------------------------------------------------------|
B|-----------------------------------------------------------------|
G|--6-----8-----6-----4-----3-----3--3------4p1-----3--3---4p1-----|
D|-----------------------------------------------------------------|
A|-----------------------------------------------------------------|
E|-----------------------------------------------------------------|

    I   can't  seem  to    get   out my head   (out my head)
E|-----------------------------------------------------------|
B|-----------------------------------------------------------|
G|--6-----8-----6-----4-----3-----3--3---4p1-----3--3---4p1--|
D|-----------------------------------------------------------|
A|-----------------------------------------------------------|
E|-----------------------------------------------------------|

  And   where  did   you   go    as  i     slept   (as i  slept)
E|-----------------------------------------------------------------|
B|-----------------------------------------------------------------|
G|--6-----8-----6-----4-----3-----3--3------4p1-----3--3---4p1-----|
D|-----------------------------------------------------------------|
A|-----------------------------------------------------------------|
E|-----------------------------------------------------------------|

    I   can't  seem  to    get   out my head   (out my head)
E|-----------------------------------------------------------|
B|-----------------------------------------------------------|
G|--6-----8-----6-----4-----3-----3--3---4p1-----3--3---4p1--|
D|-----------------------------------------------------------|
A|-----------------------------------------------------------|
E|-----------------------------------------------------------|

Almost there ...

Sign in to get your own page with links to favourite songs and more. You are just one click away...

Login with Facebook Login with Google