Log in

One click and you are in

Login with Facebook Login with Google

Why sign up and log in

Guitar Tabs Explorer
Xxxtentacion guitar tabs for Look at me (Ver. 2)

Guitar tabs

Tuning: Standard (E A D G B E)

Key: A chord diagramF#F#

Difficulty: Novice

Intro:
e|--------------------------------|
B|--7----7---8--7-----8-------8---|
G|---------------5-------4--------|
D|--------------------------------| x2
A|--9----9---10-9-----10------10--|
E|---------------8-------7--------|
Verse 1: (x4)

e|--------------------------------|
B|--7----7------------8-----------|
G|---------------5-------4--------|
D|--------------------------------|
A|--9----9------------10----------|
E|---------------8-------7--------|

e|--------------------------------|
B|--7----7------------8-------8---|
G|---------------5-------4--------|
D|--------------------------------|
A|--9----9------------10------10--|
E|---------------8-------7--------|


Interlude:

e|--------------------------------|
B|--7----7---8--7-----8-------8---|
G|---------------5-------4--------|
D|--------------------------------| x3
A|--9----9---10-9-----10------10--|
E|---------------8-------7--------|

Verse 2:

e|--------------------------------|
B|--7----7------------8-----------|
G|---------------5-------4--------|
D|--------------------------------|
A|--9----9------------10----------|
E|---------------8-------7--------|

e|--------------------------------|
B|--7----7------------8-------8---|
G|---------------5-------4--------|
D|--------------------------------|
A|--9----9------------10------10--|
E|---------------8-------7--------|

e|--------------------------------|
B|--7----7------------8-----------|
G|---------------5-------4--------|
D|--------------------------------|
A|--9----9------------10----------|
E|---------------8-------7--------|

e|--------------------------------|
B|--7----7---8--7-----8-------8---|
G|---------------5-------4--------|
D|--------------------------------|
A|--9----9---10-9-----10------10--|
E|---------------8-------7--------|


Outro:

e|--------------------------------|
B|--7----7---8--7-----8-------8---|
G|---------------5-------4--------|
D|--------------------------------| x2
A|--9----9---10-9-----10------10--|
E|---------------8-------7--------|

e|--------------------------------|
B|--7----7---8--7-----8-----------|
G|---------------5-------4--------|
D|--------------------------------|
A|--9----9---10-9-----10----------|
E|---------------8-------7--------|

Other versions of Look At Me

Look at MeChords
Look at Me - SoloTabs

Almost there ...

Sign in to get your own page with links to favourite songs and more. You are just one click away...

Login with Facebook Login with Google