Search tabs and chords

Search for song, artist or band

Log in

One click and you are in

Login with Facebook Login with Google

Why sign up and log in

Guitar Tabs Explorer
Xxxtentacion guitar tabs for King (Ver. 2)

Guitar tabs

Intro:

e|----------------------|----------------------|----------------------|----------------------|
B|----------------------|----------------------|----------------------|----------------------|
G|----------0-----------|----------0-----------|----------0-----------|----------0-----------|
D|-------9-----9--------|-------9-----9--------|-------4-----4--------|-------4-----4--------| x2
A|----7-----------------|----7-----------------|----2-----------2-----|----2-----------2-----|
E|-8--------------------|-8--------------------|-3----------------(3)-|-3----------------(3)-|
Verse: (Same thing as above)

e|----------------------|----------------------|----------------------|----------------------|
B|----------------------|----------------------|----------------------|----------------------|
G|----------0-----------|----------0-----------|----------0-----------|----------0-----------|
D|-------9-----9--------|-------9-----9--------|-------4-----4--------|-------4-----4--------| x4
A|----7-----------------|----7-----------------|----2-----------2-----|----2-----------2-----|
E|-8--------------------|-8--------------------|-3----------------(3)-|-3----------------(3)-|


Chorus:

e|--------| -------|--------|--------|
B|--------|--------|--------|--------|
G|--------|--------|--------|--------|
D|-2------|-5------|-5------|-4------| x1
A|-2------|-5------|-3------|-2------|
E|-0------|-3------|-3------|-2------|


Outro: (Same thing as before)

e|----------------------|----------------------|----------------------|----------------------|
B|----------------------|----------------------|----------------------|----------------------|
G|----------0-----------|----------0-----------|----------0-----------|----------0-----------|
D|-------9-----9--------|-------9-----9--------|-------4-----4--------|-------4-----4--------| x2
A|----7-----------------|----7-----------------|----2-----------2-----|----2-----------2-----|
E|-8--------------------|-8--------------------|-3----------------(3)-|-3----------------(3)-|

Other versions of King

KingChords
KingTabs

Almost there ...

Sign in to get your own page with links to favourite songs and more. You are just one click away...

Login with Facebook Login with Google