Search tabs and chords

Search for song, artist or band

Log in

One click and you are in

Login with Facebook Login with Google

Why sign up and log in

Guitar Tabs Explorer
Xxxtentacion guitar tabs for Jocelyn flores

Guitar tabs

Siloh has his guitar tuned flat just a little bit, and it helps give the tone of the song a more depressing
feel most likely as intended. Making it flat or not is up to you.

There are probably some missed notes or different-sounding chords than the original (I made this by ear), so
if you have any fixes, please tell me.

Intro:

e|-------------x----------x----------x----------x|
B|----------3--x---4------x-----3----x---3------x|
G|-------------x---5------x-----0----x---3------x|
D|-------3-----x---5------x-----1----x---1------x|
A|-------------x----------x----------x----------x|
E|--1----------x----------x----------x----------x|

       A chord diagramBb majorBb          A chord diagramC minorCm          Cm+9      Cm7(9)
Verses:

e|--------x----------x-----------x----------x|
B|--3-----x---4------x-----3-----x---3------x|
G|--3-----x---5------x-----0-----x---3------x|     (REPEAT 4X)
D|--------x---5------x-----1-----x---1------x|
A|--3-----x----------x-----------x----------x|
E|--------x----------x-----------x----------x|

 C7(sus2)    A chord diagramC minorCm          Cm+9      Cm7(9)


Outro:

e|------------x----------------x--------------x-----------x|
B|------------x----4--------4--x-----3-----3--x---3-------x|
G|--5-----5---x----5--------5--x-----4-----4--x---4-------x|
D|--3-----3---x----3--------3--x-----4-----4--x---4-------x|
A|--5-----5---x----------------x--------------x-----------x|
E|------------x----------------x--------------x-----------x|

     A chord diagramDm7Dm7             A chord diagramF7F7              A chord diagramGsus4Gsus4        A chord diagramGsus4Gsus4


************************************

| h  Hammer-on
| p  Pull-off
| b  Bend
| /  Slide up
| \  Slide down

Other versions of Jocelyn Flores

Jocelyn floresChords
Jocelyn flores (Ver. 2)Chords
Jocelyn flores (Ver. 3)Chords
Jocelyn flores ukuleleChords
Jocelyn flores (Ver. 2)Tabs

Almost there ...

Sign in to get your own page with links to favourite songs and more. You are just one click away...

Login with Facebook Login with Google