Log in

One click and you are in

Login with Facebook Login with Google

Why sign up and log in

Guitar Tabs Explorer
Xxxtentacion guitar tabs for Jocelyn flores (Ver. 2)

Guitar tabs

  • Capo on 1st
Tuning: Standard (E A D G B E)

Key: A chord diagramG MajorG

Difficulty: Novice

A chord diagramG MajorG        A chord diagramB minorBm       A chord diagramA majorA               A chord diagramG MajorG              A chord diagramB minorBm    A chord diagramA majorA

e|-----------5--2--5-----2p0-------|-----------9--5--2--5------------------------|
B|--0--2--3--3-----3--2-------3r2--|--0--2--3--------3-----2p0h2-----------------|
G|--0--------4-----4--2------------|--0--------------------2---------------------|
D|--0-----------------2------------|--0--------------------2---------------------|
A|---------------------------------|-----------------2---------------------------|
E|--3--------2---------------------|--3------------------------------------------|

    A chord diagramG MajorG                    A chord diagramB minorBm       A chord diagramA majorA     A chord diagramG MajorG              A chord diagramB minorBm    A chord diagramA majorA

e|--2--0-----------------5--2--5-----|-----------9--5--2--5----------------------|
B|--0-----3--2--0--2--3--3--------2--|--0--2--3--------3-----2p0h2---------------|
G|--0-----------0--------4--------2--|--0--------------------2-------------------|
D|--------------------------------2--|--0--------------------2-------------------|
A|--------------2--------2-----------|-----------------2-------------------------|
E|--3--------------------------------|--3----------------------------------------|

Play the same thing for the rest of the song.

************************************

| h   Hammer-on
| p   Pull-off
| r   Release

************************************

Other versions of Jocelyn Flores

Jocelyn floresChords
Jocelyn flores (Ver. 2)Chords
Jocelyn flores (Ver. 3)Chords
Jocelyn flores ukuleleChords
Jocelyn floresTabs

Almost there ...

Sign in to get your own page with links to favourite songs and more. You are just one click away...

Login with Facebook Login with Google