Log in

One click and you are in

Login with Facebook Login with Google

Why sign up and log in

Guitar Tabs Explorer
Xxxtentacion guitar chords for I spoke to the devil in miami he said everything would be fine ukulele

I Spoke To The Devil In Miami He Said Everything Would Be Fine Ukulele chords by Xxxtentacion

Xxxtentacion guitar chords for I spoke to the devil in miami he said everything would be fine ukulele

Guitar chords

Tuning: G C E A (G C E A)


Intro:
A|-------0---4------------0---0------------0----------4-------------------------|
E|---2---2---2---2--3-2---2---3---2--3-2---2---0---2----2---2-------2-3-3-------|
B|---0-------3----------------0--------0-------3--------3-----2-0---------0-----|
G|--------------------2-------0-----------------------0-------------------------| x1


Verse:
A|-------0---4------------0---0------------0----------4-------------------------|
E|---2---2---2---2--3-2---2---3---2--3-2---2---0---2----2---2-------2-3-3-------|
B|---0-------3----------------0--------0-------3--------3-----2-0---------0-----|
G|--------------------2-------0-----------------------0-------------------------| x3


Outro:
A|-------0---4------------0---0------------0----------4-------------------------|
E|---2---2---2---2--3-2---2---3---2--3-2---2---0---2----2---2-------2-3-3-------|
B|---0-------3----------------0--------0-------3--------3-----2-0---------0-----|
G|--------------------2-------0-----------------------0-------------------------| x3
Warning! drop C string to B

tuning is GBEA for this song!

Almost there ...

Sign in to get your own page with links to favourite songs and more. You are just one click away...

Login with Facebook Login with Google